Saliva - Always Chords & Tabs

 

Always Chords & Tabs

Saliva Chords & Tabs

Version: 3 Type: Tab 1 rating
1 star 2 stars 3 stars 4 stars 5 stars
comments

Always Tab

   
Song: Always
Artist: Saliva
Album: Back into your system
Year: 2002
Transcribed by: Ryan Stanton-Wyman,
                Gonzaga University
                Mechanical Engineering
                Class of 2006
                ryan_sw@hotmail.com
Published: October 18, 2002
Lyrics from: jysc316@hotmail.com (azlyrics.com)
Note: THIS IS MY FIRST PUBLISHED TAB!

Comments:
	This is a sweet new song from Saliva.  It seems to reflect a change in their style.  It has nice,
 mellow tone that contrasts nicely with their tradtional hard-edge feel.  Enough with the B.S., just make 
sure you listen to the song to get timing, rhythm etc.  If you can't find it on Kazaa or whatever, you can 
find it on their website at saliva.com.
	Now I know for a fact that this is not exactly correct.  This appears to be the first published 
tab of Always that I've seen so far, so I'm going exclusively off of what I hear.  Like I said this is my 
first tab, but its a fairly simple song, so It can't be too far off.  I think it may be tuned down a half 
step, but thats a pain in the arse and it sounds fine with this kind of drop-d tuning (both E strings are 
dropped to D).
	I encourage any and everyone to take this and fix it up and post it back up here for the
benefit of everyone else.  Please email me with suggestions. 

***********Tune to Drop-D on both E strings*************
***********************DADGBd***************************

Intro/Outro (Clean):
e|------------------------------------------------------------------------
B|------------------------------------------------------------------------
G|------------------------------------------------------------------------
d|--------1-----------4-------------11------------6-----------------------  Play 4X
A|-----1-----------4------------11-------------6--------------------------
D|--1--------1--4--------4--11----------11--6--------6--------------------

Transition (Clean):
d|--1-----------------3---------------------------------------------------
B|--x-----------------x---------------------------------------------------
G|--3----Let ring-----3----Let ring---------------------------------------
D|--1-----------------1---------------------------------------------------  I know this isn't right...
A|--1-----------------1---------------------------------------------------
D|------------------------------------------------------------------------

Transition2 (Clean):
d|------------------------------------------------------------------------
B|------------------------------------------------------------------------
G|------------------------------------------------------------------------
D|--6--6--6--6--6--6--6--6--4--4--4--4--4--4--4--4--1--1--xxxx--1--1--2---  Play 3x
A|--6--6--6--6--6--6--6--6--4--4--4--4--4--4--4--4--1--1--xxxx--1--1--2---    |
D|--6--6--6--6--6--6--6--6--4--4--4--4--4--4--4--4--1--1--xxxx--1--1--2---    |
Cont...                                                                       |
d|------------------------------------------------------------------------    |
B|------------------------------------------------------------------------    |
G|------------------------------------------------------------------------    |
D|--1--1--xxxx--1--1--2---------------------------------------------------    |
A|--1--1--xxxx--1--1--2---------------------------------------------------    V
D|--1--1--xxxx--1--1--2---------------------------------------------------
[ Tab from: http://www.guitartabs.cc/tabs/s/saliva/always_tab_ver_3.html ]
Chorus1 (Distorted):
d|------------------------------------------------------------------------
B|------------------------------------------------------------------------
G|------------------------------------------------------------------------
D|--1-1-xxxx-4-4-xxxx-11-11-xxxx-6-6-xxxx---------------------------------  Play 2X
A|--1-1-xxxx-4-4-xxxx-11-11-xxxx-6-6-xxxx---------------------------------
D|--1-1-xxxx-4-4-xxxx-11-11-xxxx-6-6-xxxx---------------------------------

Chorus2 (Distorted):
d|------------------------------------------------------------------------
B|------------------------------------------------------------------------
G|------------------------------------------------------------------------
D|--1-1-1-1-4-4-4-4-11-11-11-11-6-6-6-6-----------------------------------  Play 2X
A|--1-1-1-1-4-4-4-4-11-11-11-11-6-6-6-6-----------------------------------
D|--1-1-1-1-4-4-4-4-11-11-11-11-6-6-6-6-----------------------------------

Verse (Clean):
d|--3--1----3--1----3--1----3--4------------------------------------------
B|------------------------------------------------------------------------
G|------------------------------------------------------------------------
D|------------------------------------------------------------------------ Play a bunch
A|------------------------------------------------------------------------
D|------------------------------------------------------------------------


Intro-
I hear... a voice say "Don't be so blind"... 
it's telling me all these things... 
that you would probably hide... 
am I... your one and only desire... 
am I the reason you breath... 
or am I the reason you cry...

Transition- 
Always... always... always... always... always... always... always... 
I just can't live without you... 

Chorus1-
I love you... 
I hate you... 
I can't live without you... 
I breathe you... 
I taste you... 
I can't live without you...
Chrous2- 
I just can't take anymore... 
this life of solitude... 
I guess that i'm out the door... 
and now i'm done with you... 

Verse (Clean)
I feel... like you don't want me around... 
I guess i'll pack all my things... 
I guess i'll see you around... 
Inside... it bottles up until now... 
as I walk out your door... 
all I hear is the sound... 

Transition-
Always... always... always... always... always... always... always... 
I just can't live without you... 

Chorus1-
I love you... 
I hate you... 
I can't live without you... 
I breathe you... 
I taste you... 
I can't live without you... 

Chorus2-
I just can't take anymore... 
this life of solitude... 
I guess that i'm out the door... 
and now i'm done with you... 

Chorus1-
I love you... 
I hate you... 
I can't live without you... 

Transition2-
I left my head around your heart... 
Why would you tear my world apart... 
Always... always... always... always... 

Intro-
I see... the blood all over your hands... 
does it make you feel... more like a man... 
was it all... just a part of your plan... 
this pistol's shakin' in my hands... 
and all I hear is the sound... 

Chorus1-
I love you... 
I hate you... 
I can't live without you... 
I breathe you... 
I taste you... 
I can't live without you... 

Chorus2-
I just can't take anymore... 
this life of solitude... 
I guess that i'm out the door... 
and now i'm done with you... 

Chorus2-
I love you... 
I hate you... 
I can't live without you... 

Chorus2
I love you... 
I hate you... 
I can't live without you... 
I just can't take anymore...
this life of solitude... 
I pick myself off the floor... 
and now i'm done with you... 

Chorus1 (x1)-
Always...
Always... 
Always...

Comments