Saliva - Always Chords & Tabs

 

Always Chords & Tabs

Saliva Chords & Tabs

Version: 2 Type: Tab 1 rating
1 star 2 stars 3 stars 4 stars 5 stars
comments

Always Tab

   
Tabbed by Jesse Martin

Its in Drop D....Have fun

Intro
  D#	   F#	   B	   G#
E----------------------------------------------------------------------------
B----------------------------------------------------------------------------
G----------------------------------------------------------------------------
D-----1------4-------9------6---------------------------------------------
A---1--1---4-4----9--9---6--6-------------------------------------------
D-1-------4-------9------6------------------------------------------------

[ Tab from: http://www.guitartabs.cc/tabs/s/saliva/always_tab_ver_2.html ]
Prechorus
Always, always, always, always, always, always, I just can’t live without you
------------------------------------------------------------------------------  ---------------------------------
------------------------------------------------------------------------------  ---------------------------------
------------------------------------------------------------------------------ ---------------------------------
-9----------------------8-------------------------6-----------------------9------- -------11--------------------
-9----------------------8-------------------------6-----------------------9------- -------11--------------------
-9----------------------8-------------------------6-----------------------9------- -------11--------------------


Chorus:
Regular D#, F#, B, G# power chord sequence with tiny cuts in the strumming.
and then with some type of compressor effect:
  Done with you  Done with you Done with you
B--4-----6-----7------4------6----7----4------6-----7------

Verse
This has the same compressor effect

B----6--4---- X 3      ---6--7---------------------------------


Interlude thing:
	I left my head around your heart
------------------------------------------------------------------------
------------------------------------------------------------------------
------------------------------------------------------------------------
-------6------------4-----------------------1---------2-----1-----2-
-------6------------4-----------------------1---------2-----1-----2-
-------6------------4-----------------------1---------2-----1-----2-
Comments