Saliva - Always Chords & Tabs

 

Always Chords & Tabs

Saliva Chords & Tabs

Version: 1 Type: Bass Tab 0 ratings
1 star 2 stars 3 stars 4 stars 5 stars
comments

Always Bass Tab

Band- Saliva
Song- Always

Pre-chorus (always, always, always, etc)

G|-----------------------------------------------------||
D|-----------------------------------------------------||
A|11111111---------------------------------44-44-------||
D|------------66666666--44444444--11-------------------||

Chorus

G|------------------------------------------------------||(x2)
D|------------------------------------------------------||
A|------------------44-xx-22-xx-------------------------||
D|--11-xx-44-xx-----------------------------------------||

G|------------------------------------------------------||(x2)
D|------------------------------------------------------||
A|----------------4444--2222----------------------------||
D|-1111--4444-------------------------------------------||

2nd verse

G|-----------------------------------------------------||
D|-----------------------------------------------------||
A|--------------4-44-----------------------------------||
D|--1-11/444--------666--------------------------------||

(Pre-chorus)

(Chorus)


Bridge #1

G|-----------------------------------------------------||
D|-----------------------------------------------------||
A|----------------44-xx-22-xx--------------------------||
D|--11-xx-44-xx----------------------------------------||

Bridge #2
[ Tab from: http://www.guitartabs.cc/tabs/s/saliva/always_btab.html ]
G|-----------------------------------------------------||(x2)
D|-----------------------------------------------------||
A|-----------------------------------------------------||
D|-66666666-44444444--11--111-2--11--111-2-------------||

Bridge #3

G|-----------------------------------------------------||(let the last note ring throughout the
D|-----------------------------------------------------||next bridge, where there is no 
A|--------------------4444/6~~~------------------------||actual bass playing)
D|-66666666-4444---------------------------------------||

Bridge #4

G|-----------------------------------------------------||
D|-----------------------------------------------------||
A|-----(6)~~~~~----------------------------------------||
D|-----------------------------------------------------||

(Chorus)


Ending chorus (crazy playing)

G|-----------------------------------------------------||(x8)
D|-----------------------------------------------------||
A|----------------------4-4-4-4--2-2-2-2---------------||
D|--1-1-1-1--4-4-4-4-----------------------------------||

Outro

G|-----------------------------------------------------||
D|-----------------------------------------------------||
A|----------------44-4/--------------------------------||
D|--11-xx-44-xx-------6~-------------------------------||
Comments