Saliva - All Because Of You Chords & Tabs

 

All Because Of You Chords & Tabs

Saliva Chords & Tabs

Version: 1 Type: Tab 0 ratings
1 star 2 stars 3 stars 4 stars 5 stars
comments

All Because Of You Tab

   
Band- Saliva
Song- All Because Of You

Tuning Db Ab Db Gb Bb eb

Intro: Clean
eb|-----------------------------------------------------------------------|
Bb|-----------------------------------------------------------------------|
Gb|--7-----7--------7-----7--7--------------------------------------------|
Db|--7-----7---7----7-----7--7----7---7--\3----3---3--3----3--3---3--3----|
Ab|--5-----5--------5-----5--5----7---7--\3----3---3--3----3--3---3--3----|
Db|--0-----0--------0-----0--0----7---7--\3----3---3--3----3--3---3--3--0-|

eb|-----------------------------------------------------------------------|
Bb|-----------------------------------------------------------------------|
Gb|--7----7---------7-------7----7----------------------------------------|
Db|--7----7-----7---7-------7----7-------7----7---\---3-------------------|
Ab|--5----5---------5-------5----5-------7----7---\---3-------------------|
Db|--0----0---------0-------0----0-------7----7---\---3-------------------|
[ Tab from: http://www.guitartabs.cc/tabs/s/saliva/all_because_of_you_tab.html ]
Distortion on:
eb|---------------------------------------------------------------------------------|
Bb|---------------------------------------------------------------------------------|
Gb|---------------------------------------------------------------------------------|
Db|---------------------------------------------------------------------------------|
Ab|-3p2--3p2--3p2---3--3--2--3--2--3p2--2h3---3p2--3p2--3p2---3--3--2--3--2--3p2--0-|
Db|-3p2--3p2--3p2---3--3--2--3--2--3p2--2h3---3p2--3p2--3p2---3--3--2--3--2--3p2--0-|
pm ....... ........

eb|---------------------------------------------------------------------------------|
Bb|---------------------------------------------------------------------------------|
Gb|---------------------------------------------------------------------------------|
Db|---------------------------------------------------------------------------------|
Ab|-(0)--2--3--2--3p2----3--3--2--3--2--3p2--2h3--3p2--3p2--3p2--3-3-2-3-2-3p2----0-|
Db|-(0)--2--3--2--3p2----3--3--2--3--2--3p2--2h3--3p2--3p2--3p2--3-3-2-3-2-3p2----0-|
pm .....
Comments