Saliva - After Me Chords & Tabs

 

After Me Chords & Tabs

Saliva Chords & Tabs

Version: 3 Type: Tab 0 ratings
1 star 2 stars 3 stars 4 stars 5 stars
comments

After Me Tab

(tab)

 Song: After Me   
 Artist: Saliva    
 Album: Every Six Seconds
 Tabbed by: Nick Peltola     

                             KEY:      
        
                        /    =  slide

                        ^    =  bend
                     
 RIFF 1 (CHOURS)
e|-------------------------------------------------------------|
B|-------------------------------------------------------------|
G|-------------------------------------------------------------|
D|-------------------------------------------------------------|
A|-0--9--0--9-0-7-7-7--7777-7-7/10-10--10-10-10/9-9--9/10-9/10-|
E|-0--7--0--7-0-5-5-5--5555-5-5/8---8---8--8--8/7-7--7/8--7/8--| 

Riff 2
e|---------------------------------------------|
B|---------------------------------------------|
G|---------------------------------------------| 
D|---4--6--4---------4--7--6-------------------|
A|-4--------------4----------------------------|
E|---------------------------------------------|

Riff 3
e|-----------------------------------------------|
B|-----------------------------------------------|
G|-6------4-----2-----4------6------4-----2----4-|
D|-6------4-----2-----4------6------4-----2----4-|
A|-4------2-----0-----2------4------2-----0----2-|
E|-----------------------------------------------|
[ Tab from: http://www.guitartabs.cc/tabs/s/saliva/after_me_tab_ver_3.html ]
Riff 4
e|-------------------------------------------|
B|-------------------------------------------|
G|-------------------------------------------|
D|-6/7-77--6/7-77-----6/7-77--6/7-77---9--11-|
A|-6/7-77--6/7-77-----6/7-77--6/7-77---9--11-|
E|-7/8-88--7/8-88-----7/8-88--7/8-88--10--12-|
        
Riff 5                                                    
e|--------------------------------------------|  
B|--------------------------------------------|
G|--------------------------------------------|
D|-6/7-77--6/7-77-----6/7-7-7--6/7-77--6--4---|
A|-6/7-77--6/7-77-----6/7-7-7--6/7-77--6--4---|
E|-7/8-88--7/8-88-----7/8-8-8--7/8-88--7--5---|

Solo 1
e|-------------------4----4----4----4----4----|
B|5^--4--2--0----2----2----2----2----2----2---|
G|--------------------------------------------| 
D|--------------------------------------------|
A|--------------------------------------------|
E|--------------------------------------------|

Solo 2                                                          
e|----------2--4--------16---16---16---16---16---16~-|  
B|-2--4--5----------14----14---14---14---14---14-----|
G|---------------------------------------------------|
D|---------------------------------------------------|
A|---------------------------------------------------|
E|---------------------------------------------------|

Riff 1 (palm muted) - Intro
Riff 1 (twice)    
Riff 2 (four times)
Riff 3 
Chours (Riff 1 twice)
Riff 2 (four times)
Riff 3
Chours
Riff 4
Riff 5
Riff 4
Riff 5
Solo 1(play three times)
Solo 2
Riff 3 (three times)
Chours (four times)

(Ends with singing)"THE WORLD IS AFTER  MMMEEEEEEEEE!!!!!"

Adios, if you wanna email your complants or suggestions, comments
whatevers, its . Rock on! 

(tab/)
Comments