Saliva - After Me Chords & Tabs

 

After Me Chords & Tabs

Saliva Chords & Tabs

Version: 1 Type: Tab 0 ratings
1 star 2 stars 3 stars 4 stars 5 stars
comments

After Me Tab

   
Artist - Saliva
Song   - After Me
Album  - Every Six Seconds
Tabbed by: Antitheus Sacerdos
e-mail - andrew_gorman@metallica.com
website - http://www.geocities.com/antitheus_sacerdos


This took me about ten minutes to figure out, but an hour to tab, because typing it out takes forever.  I can't say it is 100% right, but it is close.  It sounds good when played with the CD.

Tuning - D-A-D-G-B-E (low-high)

Intro - clean tone, muted

e|-----------------------------------------------|
B|-----------------------------------------------|
G|-----------------------------------------------|
D|-----------------------------------------------|
A|-0-7-0-7-0--5-5-5-5-5--0-0--8-8-8-8-8--7-7-7-7-|
D|-0-7-0-7-0--5-5-5-5-5--0-0--8-8-8-8-8--7-7-7-7-|



Riff A - heavy distortion

e|-----------------------------------------------------|
B|-----------------------------------------------------|
G|-----------------------------------------------------|
D|-0-7-0-7-0--5-5-5-5-5--0-0--8-8-8-8-8--7-7-7-7h8p7h8-|
A|-0-7-0-7-0--5-5-5-5-5--0-0--8-8-8-8-8--7-7-7-7h8p7h8-|
D|-0-7-0-7-0--5-5-5-5-5--0-0--8-8-8-8-8--7-7-7-7h8p7h8-|




Verse - clean tone, muted

e|-----------------------------------------------------|
B|-----------------------------------------------------|
G|-----------------------------------------------------|
D|-----------------------------------------------------|
A|-----------------------------------------------------|
D|-0-7-0-7-0--5-5-5-5-5--0-0--8-8-8-8-8--7-7-7-7h8p7h8-|



Chorus - heavy distortion

e|----------------------------------------------------------------------|
B|----------------------------------------------------------------------|
G|----------------------------------------------------------------------|
D|-8-8-8-8-8-8-8-8--7-7-7-7-7-7-7-7--5-5-5-5-5-5-5-5--3-3-3-3-3-3-3-3-3-|
A|-8-8-8-8-8-8-8-8--7-7-7-7-7-7-7-7--5-5-5-5-5-5-5-5--3-3-3-3-3-3-3-3-3-|
D|-8-8-8-8-8-8-8-8--7-7-7-7-7-7-7-7--5-5-5-5-5-5-5-5--3-3-3-3-3-3-3-3-3-|



Solo - heavy distortion
[ Tab from: http://www.guitartabs.cc/tabs/s/saliva/after_me_tab.html ]
e|-----------------------------------------------|
B|-------------------------10-----10-----10---10-|
G|-12h13p12-10-9-7-5-4/7-7----7-7----7-7----7----|
D|-----------------------------------------------|
A|-----------------------------------------------|
D|-----------------------------------------------|

e|-------------------------------------------|-------------------------------------------|
B|---------------------10-----10-----10---10-|---------------------10-----10-----10---10-|
G|-7/12-10-9-7-5-4/7-7----7-7----7-7----7----|-7/12-10-9-7-5-4/7-7----7-7----7-7----7----|
D|-------------------------------------------|-------------------------------------------|
A|-------------------------------------------|-------------------------------------------|
D|-------------------------------------------|-------------------------------------------|

e|----------------------------------------------------------|
B|-------------------------------15-------15-------15----15-|
G|-7-9-10-12-14-15--/12-12-12-12----12-12----12-12----12----|
D|----------------------------------------------------------|
A|----------------------------------------------------------|
D|----------------------------------------------------------|


Chorus - heavy distortion

e|----------------------------------------------------------------------|
B|----------------------------------------------------------------------|
G|----------------------------------------------------------------------|
D|-8-8-8-8-8-8-8-8--7-7-7-7-7-7-7-7--5-5-5-5-5-5-5-5--3-3-3-3-3-3-3-3-3-|
A|-8-8-8-8-8-8-8-8--7-7-7-7-7-7-7-7--5-5-5-5-5-5-5-5--3-3-3-3-3-3-3-3-3-|
D|-8-8-8-8-8-8-8-8--7-7-7-7-7-7-7-7--5-5-5-5-5-5-5-5--3-3-3-3-3-3-3-3-3-|


Outtro - heavy distortion

e|-----------------------------------------------------|
B|-----------------------------------------------------|
G|-----------------------------------------------------|
D|-0-7-0-7-0--5-5-5-5-5--0-0--8-8-8-8-8--7-7-7-7h8p7h8-|
A|-0-7-0-7-0--5-5-5-5-5--0-0--8-8-8-8-8--7-7-7-7h8p7h8-|
D|-0-7-0-7-0--5-5-5-5-5--0-0--8-8-8-8-8--7-7-7-7h8p7h8-|
Comments