Salads - Get Loose Chords & Tabs

 

Get Loose Chords & Tabs

Salads Chords & Tabs

Version: 3 Type: Tab 0 ratings
1 star 2 stars 3 stars 4 stars 5 stars
comments

Get Loose Tab

   
  -=TUNING=-
[ D A D G B E ]

X= Mute... 

Intro
|-----------------------------------|------------------------------------------|
|-----------------------------------|------------------------------------------|
|-----------------------------------|--7--7---6---7---9---7-7---11---9-9---7-7-|
|--7-7-7-7---5-5-5-5---4-4-4-4---2--|--X--X---X---X---X---X-X---X----X-X---X-X-|
|--7-7-7-7---5-5-5-5---4-4-4-4---2--|--5--5---4---5---7---5-5---9----7-7---5-5-|
|--7-7-7-7---5-5-5-5---4-4-4-4---2--|------------------------------------------|


|-----------------------------------|
|-----------------------------------|
|--6--7--9--7--9--------------------|
|--X--X--X--X--X-(LstNotePlayAlot)--|
|--4--5--7--5--7--------------------|
|-----------------------------------|
[ Tab from: http://www.guitartabs.cc/tabs/s/salads/get_loose_tab_ver_3.html ]
|----------------------|-----------------------|
|----------------------|-----------------------|
|--14--14---12--12-----|--12--12---14--14-14-14|
|---X---X----X---X--x3-|---X---X----X---X--X--X|  x2
|--12--12---10--10-----|--10--10---12--12-12-12|
|----------------------|-----------------------|
Chorus:
|----------------|                                           |---|
|----------------|                                           |---|
|----------------|                                           |---|
|--0---4-5---4---|                                           |-7-| x2
|--0---4-5---4---| x3 on third time end with one more note...|-7-|
|--0---4-5---4---|                                           |-7-|


|----------------------|-----------------------|
|----------------------|-----------------------|
|--14--14---12--12-----|--12--12---14--14-14-14|
|---X---X----X---X--x3-|---X---X----X---X--X--X|  x3
|--12--12---10--10-----|--10--10---12--12-12-12|
|----------------------|-----------------------|

-=Repeat Chorus=-

Solo
|------------|----------------|-------------------------------- |
|------------|----------------|---------------------------------|
|-6--7--9-7--|-11---9-9---7---|--7--6--7--9--7--9---11--12--14--|
|-X--X--X-x--|--X---X-X---X---|--X--X--X--X--X--X----X---X---X--| x2
|-4--5--7-5--|--9---7-7---5---|--5--4--5--7--5--7----9--10--12--|
|------------|----------------|---------------------------------|

-=Repeat Chorus=- for a while

Outro
|--10-------7-------5-------3------|--10------7------------2----------------|
|----10-------8-------7-------4----|----10------8----------3----------------|
|------11-------7-------7-------4--|------11------7--------2----------------|
|----------------------------------|-----------------------0----------------|
|----------------------------------|-----------------------0----------------|
|----------------------------------|-----------------------0-^strum^--------|

                                 !THE---EnD!
                                 Enjoy!!!! =D
Comments