Salads - Get Loose Chords & Tabs

 

Get Loose Chords & Tabs

Salads Chords & Tabs

Version: 2 Type: Tab 0 ratings
1 star 2 stars 3 stars 4 stars 5 stars
comments

Get Loose Tab

   
SONG: GET LOOSE
BAND: THE SALADS
TABBED BY: DORTEATER
e---------------------------------------------|
b---------------------------------------------|
g---------------------------------------------|
D-5-5-5-4-5-7-5-5-5-5-9-7-7-5-5-5-5-4-5-7-5-7-|
A-3-3-3-2-3-5-3-3-3-3-7-5-5-3-3-3-3-2-3-5-3-5-|
E---------------------------------------------|
[ Tab from: http://www.guitartabs.cc/tabs/s/salads/get_loose_tab_ver_2.html ]
VERSE
e-3-3-2-2-2-3-3-2-2-2------------|
b-3-3-2-2-2-3-3-2-2-2------------|
g-3-3-2-2-2-3-3-2-2-2------------|
D--------------------------------|
A--------------------------------|
E--------------------------------|
the verse is done 4 times
CHORUS
e--------------------------------------------------------------------------|
b--------------------------------------------------------------------------|
g--------------------------------------------------------------------------|
D-7-7-1112-12-12-7-7-7-1112-12-12-7-7-1112-12-12-14-14-14-14-14-14-14-14---|
A-7-7-1112-12-12-7-7-7-1112-12-12-7-7-1112-12-12-14-14-14-14-14-14-14-14---|
E-5-5-9-10-10-10-5-5-5-9-10-10-10-5-5-9-10-10-10-12-12-12-12-12-12-12-12---| x2

SOLO

e-------------------------------------------------------------------|
b-2-3-5-3---7-5-5-3---2-3-5-3-5-7-8-10------------------------------| x2
g-------------------------------------------------------------------|
D-------------------------------------------------------------------|
A-------------------------------------------------------------------|
E-------------------------------------------------------------------|
then after the solo go back to the chorus
Comments