Saints - Im Stranded Chords & Tabs

 

Im Stranded Chords & Tabs

Saints Chords & Tabs

Version: 1 Type: Tab 0 ratings
1 star 2 stars 3 stars 4 stars 5 stars
comments

Im Stranded Tab

   
Tabber: Brett Wade
Song: (I'm) Stranded
Band: The Saints
70's Punk Legends The Saints

       RIFF 'A"
   F# B  F# B Db
 E|---------------------------|
 B|---------------------------|
 G|---4-----4/6-6-6-6-6-6-6-6-|
 D|4--4--4--4/6-6-6-6-6-6-6-6-|
 A|4--2--4--2/4-4-4-4-4-4-4-4-|
 E|2-----2--------------------|
[ Tab from: http://www.guitartabs.cc/tabs/s/saints/im_stranded_tab.html ]
       RIFF 'B'
   A       G#      G        F#     F
 D|7-7-7-7-6-6-6-6-5-5-5-5-4-4-4-4-3-|
 A|7-7-7-7-6-6-6-6-5-5-5-5-4-4-4-4-3-|
 E|5-5-5-5-4-4-4-4-3-3-3-3-2-2-2-2-1-|
PM|**********************************|

INTRO-
RIFF 'A' X 2
RIFF 'B' X 2
............
ALL VERSES RIFF 'A' X ?

EMAIL-   theonlyking87@hotmail.com
Comments