Saintins Son - Possessed Thoughts Chords & Tabs

 

Possessed Thoughts Chords & Tabs

Saintins Son Chords & Tabs

Version: 1 Type: Tab 0 ratings
1 star 2 stars 3 stars 4 stars 5 stars
comments

Possessed Thoughts Tab

#----------------------------------PLEASE NOTE---------------------------------#
#This file is the author's own work and represents their interpretation of the #
#song. You may only use this file for private study, scholarship, or research. #
#------------------------------------------------------------------------------#

Normal Tuning
(use lots of distortion)

                 This tab Is the real tab i use in all the recordings of this song
enjoy!!!!!

guitar 1
(intro)
|-----------------------------------|
|-----------------------------------|
|-----------------------------------|
|-2-(0)-2-2-2-(0)-2-(0)-2-2----5----|
|-2-(0)-2-2-2-(0)-2-(0)-2-2----5----|
|-0-(0)-0-0-0-(0)-0-(0)-0-0----3\14-|


|----------------------------------|
|----------------------------------|
|----------------------------------|
|-2-(0)-2-2-2-(0)-2-(0)-2-2---7-5--|
|-2-(0)-2-2-2-(0)-2-(0)-2-2---7-5--|
|-0-(0)-0-0-0-(0)-0-(0)-0-0---5-3--|

(Main Riff) mute all the notes!!!!

|-----------------------------------|
|-----------------------------------|
|-----------------------------------|
|-2-(0)-2-2-2-(0)-2-(0)-2-2----5----|
|-2-(0)-2-2-2-(0)-2-(0)-2-2----5----|
|-0-(0)-0-0-0-(0)-0-(0)-0-0----3\14-|
   tryin to sleep hear in my bed

|----------------------------------|
|----------------------------------|
|----------------------------------|(add a few mutes if needed)
|-2-(0)-2-2-2-(0)-2-(0)-2-2---7-5--|
|-2-(0)-2-2-2-(0)-2-(0)-2-2---7-5--|
|-0-(0)-0-0-0-(0)-0-(0)-0-0---5-3--|
but i got thoughts of demonds all through my head

|-----------------------------------|
|-----------------------------------|
|-----------------------------------|
|-2-(0)-2-2-2-(0)-2-(0)-2-2----5----|
|-2-(0)-2-2-2-(0)-2-(0)-2-2----5----|
|-0-(0)-0-0-0-(0)-0-(0)-0-0----3\14-|
    i cant take it any more
[ Tab from: http://www.guitartabs.cc/tabs/s/saintins_son/possessed_thoughts_tab.html ]
|----------------------------------|
|----------------------------------|
|----------------------------------|
|-2-(0)-2-2-2-(0)-2-(0)-2-2---7-5--|
|-2-(0)-2-2-2-(0)-2-(0)-2-2---7-5--|
|-0-(0)-0-0-0-(0)-0-(0)-0-0---5-3--|
  i'm just gonna crack right now

|-----------------------------------|
|-----------------------------------|
|-----------------------------------|
|-2-(0)-2-2-2-(0)-2-(0)-2-2----5----|
|-2-(0)-2-2-2-(0)-2-(0)-2-2----5----|
|-0-(0)-0-0-0-(0)-0-(0)-0-0----3\14-|
   if my life wasnt so bad

|----------------------------------|
|----------------------------------|
|----------------------------------|
|-2-(0)-2-2-2-(0)-2-(0)-2-2---7-5--|
|-2-(0)-2-2-2-(0)-2-(0)-2-2---7-5--|
|-0-(0)-0-0-0-(0)-0-(0)-0-0---5-3--|
  i woldnt be scared right now

(play this oppen between verses)
|-----------------------------------|
|-----------------------------------|
|-----------------------------------|
|-2-(0)-2-2-2-(0)-2-(0)-2-2----5----|
|-2-(0)-2-2-2-(0)-2-(0)-2-2----5----|
|-0-(0)-0-0-0-(0)-0-(0)-0-0----3\14-|
    

|----------------------------------|
|----------------------------------|
|----------------------------------|
|-2-(0)-2-2-2-(0)-2-(0)-2-2---7-5--|
|-2-(0)-2-2-2-(0)-2-(0)-2-2---7-5--|
|-0-(0)-0-0-0-(0)-0-(0)-0-0---5-3--|
 
guitar 2 
(solo 1) play only affter verse 1
|---------------------------|
|---------------------------|
|h7-5p7-5-7b7.5-5b6=========|
|--------------------5b7.5--|
|---------------------------|
|---------------------------|

guitar 2
 (solo 2)play affter 3rd  verse                                    ~               ~~~~~~        ~~~~~   T
|------------------------------------------------------------------------------------------------------------------------|
|------------------------------------------------------------------------------------------------------------------------|
|-7-5-7b8u0.75d-5-7-5b6.5-7tr8-5tr6-7-5-6tr5--------5-6tr5b8-5p7u-5p(
Comments