Sahara Hotnights - Walk On The Wire Chords & Tabs

 

Walk On The Wire Chords & Tabs

Sahara Hotnights Chords & Tabs

Version: 1 Type: Tab 0 ratings
1 star 2 stars 3 stars 4 stars 5 stars
comments

Walk On The Wire Tab

Walk On The Wire
By Sahara Hotnights

This is a fun song to play and this is my first tab so plz rate.

(Intro)
Guitar 1
e------------------------------------------------|
B------------------------------------------------|
G-5--5--5--5--5--5--5--5--5--5--5--5--5--5--5--5-|
D-5--5--5--5--5--5--5--5--5--5--5--5--5--5--5--5-|
A-3--3--3--3--3--3--3--3--3--3--3--3--3--3--3--3-|
E------------------------------------------------|

e------------------------------------------------|
B------------------------------------------------|
G-3--3--3--3--3--3--3--3--3--3--3--3--3--3--3--3-|
D-3--3--3--3--3--3--3--3--3--3--3--3--3--3--3--3-|
A-1--1--1--1--1--1--1--1--1--1--1--1--1--1--1--1-|
E------------------------------------------------|

e------------------------------------------------|
B------------------------------------------------|
G-5--5--5--5--5--5--5--5--5--5--5--5--5--5--5--5-|
D-5--5--5--5--5--5--5--5--5--5--5--5--5--5--5--5-|
A-3--3--3--3--3--3--3--3--3--3--3--3--3--3--3--3-|
E------------------------------------------------|

e------------------------------------------------|
B------------------------------------------------|
G-8--8--8--8--8--8--8--8-------------------------|
D-8--8--8--8--8--8--8--8-------------------------|
A-6--6--6--6--6--6--6--6-------------------------|
E------------------------------------------------|

Guitar 2
e------------------------8-----------------------|
B-------------------------8----------------------|
G----------------------------10-10-10--8---------|
D---------------------------------------10-------|
A------------------------------------------------|
E------------------------------------------------|

Guitar 1
e------------------------------------------------|
B------------------------------------------------|
G-5--5--5--5--5--5--5--5--5--5--5--5--5--5--5--5-|
D-5--5--5--5--5--5--5--5--5--5--5--5--5--5--5--5-|
A-3--3--3--3--3--3--3--3--3--3--3--3--3--3--3--3-|
E------------------------------------------------|

Guitar 2
e------------------------------------------------|
B----------------10--------------------10b-------|
G------------8b--10--8~-------------8--10b-------|
D-10--10--10------------10--10--10---------------|
A------------------------------------------------|
E------------------------------------------------|

Guitar 1
e------------------------------------------------|
B------------------------------------------------|
G-3--3--3--3--3--3--3--3--3--3--3--3--3--3--3--3-|
D-3--3--3--3--3--3--3--3--3--3--3--3--3--3--3--3-|
A-1--1--1--1--1--1--1--1--1--1--1--1--1--1--1--1-|
E------------------------------------------------|

Guitar 2
e------------------------------------------------|
B------------------------------------------10----|
G------------------------------------------10--8~|
D------------------------------------------------|
A------------------------------------------------|
E------------------------------------------------|

Guitar 1
e------------------------------------------------|
B------------------------------------------------|
G-5--5--5--5--5--5--5--5--5--5--5--5--5--5--5--5-|
D-5--5--5--5--5--5--5--5--5--5--5--5--5--5--5--5-|
A-3--3--3--3--3--3--3--3--3--3--3--3--3--3--3--3-|
E------------------------------------------------|

Guitar 2
e------------------------------------------------|
B----------------10--------------------10b-------|
G------------8b--10--8~-------------8--10b-------|
D-10--10--10------------10--10--10---------------|
A------------------------------------------------|
E------------------------------------------------|

Guitar 1
e------------------------------------------------|
B------------------------------------------------|
G-8--8--8--8--8--8--8--8--3--3--3--3--3--3--3--3-|
D-8--8--8--8--8--8--8--8--3--3--3--3--3--3--3--3-|
A-6--6--6--6--6--6--6--6--1--1--1--1--1--1--1--1-|
E------------------------------------------------|

Guitar 2
e------------------------8-----------------------|
B-10----------------------8----------------------|
G-10-8~----------------------10-10-10--8---------|
D---------------------------------------10-------|
A------------------------------------------------|
E------------------------------------------------|

(Verse)
Guitar 1
e------------------------------------------------|
B------------------------------------------------|
G-5--5--5--5--5--5--5--5--5--5--5--5--5--5--5--5-|
D-5--5--5--5--5--5--5--5--5--5--5--5--5--5--5--5-|
A-3--3--3--3--3--3--3--3--3--3--3--3--3--3--3--3-|
E------------------------------------------------|

e------------------------------------------------|
B------------------------------------------------|
G-3--3--3--3--3--3--3--3--3--3--3--3--3--3--3--3-|
D-3--3--3--3--3--3--3--3--3--3--3--3--3--3--3--3-|
A-1--1--1--1--1--1--1--1--1--1--1--1--1--1--1--1-|
E------------------------------------------------|

e------------------------------------------------|
B------------------------------------------------|
G-5--5--5--5--5--5--5--5--5--5--5--5--5--5--5--5-|
D-5--5--5--5--5--5--5--5--5--5--5--5--5--5--5--5-|
A-3--3--3--3--3--3--3--3--3--3--3--3--3--3--3--3-|
E------------------------------------------------|

e------------------------------------------------|
B------------------------------------------------|
G-8--8--8--8--8--8--8--8--3--3--3--3--3--3--3--3-|
D-8--8--8--8--8--8--8--8--3--3--3--3--3--3--3--3-|
A-6--6--6--6--6--6--6--6--1--1--1--1--1--1--1--1-|
E------------------------------------------------|

Guitar 2
e-----------------------------8------------------|
B------------------------------8-----------------|
G---------------------------------10-10-10--8----|
D--------------------------------------------10--|
A------------------------------------------------|
E------------------------------------------------|

Guitar 1
e------------------------------------------------|
B------------------------------------------------|
G-5--5--5--5--5--5--5--5--5--5--5--5--5--5--5--5-|
D-5--5--5--5--5--5--5--5--5--5--5--5--5--5--5--5-|
A-3--3--3--3--3--3--3--3--3--3--3--3--3--3--3--3-|
E------------------------------------------------|

e------------------------------------------------|
B------------------------------------------------|
G-3--3--3--3--3--3--3--3--3--3--3--3--3--3--3--3-|
D-3--3--3--3--3--3--3--3--3--3--3--3--3--3--3--3-|
A-1--1--1--1--1--1--1--1--1--1--1--1--1--1--1--1-|
E------------------------------------------------|

e------------------------------------------------|
B------------------------------------------------|
G------------------------------------------------|
D-6--6--6--6--6--6--6--6--5--5--5--5--5--5--5--5-|
A-6--6--6--6--6--6--6--6--5--5--5--5--5--5--5--5-|
E-4--4--4--4--4--4--4--4--3--3--3--3--3--3--3--3-|

Guitar 2
e------------------------------------------------|
B------------------------------------------------|
G------------------------------------------------|
D-6--6--6--6--6--6--6--6--5--5--5--5--5--5--5--5-|
A-6--6--6--6--6--6--6--6--5--5--5--5--5--5--5--5-|
E-4--4--4--4--4--4--4--4--3--3--3--3--3--3--3--3-|

(Verse)
Guitar 1
e------------------------------------------------|
B------------------------------------------------|
G------------------------------------------------|
D-6-----6--8--8--8--10----10--10----10--10--10---|
A-6-----6--8--8--8--10----10--10----10--10--10---|
E-4-----4--6--6--6--8-----8---8-----8---8---8----|
[ Tab from: http://www.guitartabs.cc/tabs/s/sahara_hotnights/walk_on_the_wire_tab.html ]
Guitar 2
e------------------------------------------------|
B------------------------------------------------|
G-------------------------8~---------------------|
D-10-----10-----10--8--10------------------------|
A------------------------------------------------|
E------------------------------------------------|

Guitar 1
e------------------------------------------------|
B------------------------------------------------|
G------------------------------------------------|
D-6-----6--8--8--8--10----10--10----10--10--10---|
A-6-----6--8--8--8--10----10--10----10--10--10---|
E-4-----4--6--6--6--8-----8---8-----8---8---8----|

Guitar 2
e------------------------------------------------|
B------------------------------------------------|
G-------------------------8~---------------------|
D-10-----10-----10--8--10------------------------|
A------------------------------------------------|
E------------------------------------------------|

Guitar 1
e------------------------------------------------|
B------------------------------------------------|
G------------------------------------------------|
D-6-----6--8--8--8--10----10--10----10--10--10---|
A-6-----6--8--8--8--10----10--10----10--10--10---|
E-4-----4--6--6--6--8-----8---8-----8---8---8----|

Guitar 2
e------------------------------------------------|
B------------------------------------------------|
G-------------------------8~---------------------|
D-10-----10-----10--8--10------------------------|
A------------------------------------------------|
E------------------------------------------------|

Guitar 1
e------------------------------------------------|
B------------------------------------------------|
G------------------------------------------------|
D-6-----6--8--8--8--10----10--10----10--10--10---|
A-6-----6--8--8--8--10----10--10----10--10--10---|
E-4-----4--6--6--6--8-----8---8-----8---8---8----|

Guitar 2
e------------------------------------------------|
B-8-----8-----8----------------------------------|
G----------------10p8----------------------------|
D----------------------10------------------------|
A-------------------------------------------17/10|
E------------------------------------------------|

(solo)
Gutiar 1
e------------------------------------------------|
B------------------------------------------------|
G-5--5-----------5--------------5--5-----------5-|
D-5--5-----------5--------------5--5-----------5-|
A-3--3-----------3--------------3--3-----------3-|
E------------------------------------------------|

Guitar 2
e-------------8-----------------8----------------|
B----------8----11-----------8----11-11----------|
G----8--10-------------8--10---------------------|
D-10---------------10----------------------------|
A------------------------------------------------|
E------------------------------------------------|

Guitar 1
e------------------------------------------------|
B------------------------------------------------|
G-3--3-----------3--------------3--3-----------3-|
D-3--3-----------3--------------3--3-----------3-|
A-1--1-----------1--------------1--1-----------1-|
E------------------------------------------------|

Guitar 2
e------------------------------------------------|
B-11--9------------------------------------------|
G-------10-10-----------17/10--------------------|
D------------------------------------------------|
A------------------------------------------------|
E------------------------------------------------|

Gutiar 1
e------------------------------------------------|
B------------------------------------------------|
G-5--5-----------5--------------5--5-----------5-|
D-5--5-----------5--------------5--5-----------5-|
A-3--3-----------3--------------3--3-----------3-|
E------------------------------------------------|

Guitar 2
e-------------8-----------------8----------------|
B----------8----11-----------8----11-11----------|
G----8--10-------------8--10---------------------|
D-10---------------10----------------------------|
A------------------------------------------------|
E------------------------------------------------|

Guitar 1
e------------------------------------------------|
B------------------------------------------------|
G-8--8-----------8--------------3--3-----------3-|
D-8--8-----------8--------------3--3-----------3-|
A-6--6-----------6--------------1--1-----------1-|
E------------------------------------------------|

Gutiar 2
e------------------------------------------------|
B-11--9------------------------------------------|
G-------10-10---------8-8-8----------------------|
D------------------------------------------------|
A------------------------------------------------|
E------------------------------------------------|

Gutiar 1
e------------------------------------------------|
B------------------------------------------------|
G-5--5-----------5--------------5--5-----------5-|
D-5--5-----------5--------------5--5-----------5-|
A-3--3-----------3--------------3--3-----------3-|
E------------------------------------------------|

Guitar 2
e-------------8-----------------8----------------|
B----------8----11-----------8----11-11----------|
G----8--10-------------8--10---------------------|
D-10---------------10----------------------------|
A------------------------------------------------|
E------------------------------------------------|

Guitar 1
e------------------------------------------------|
B------------------------------------------------|
G-3--3-----------3--------------3--3-----------3-|
D-3--3-----------3--------------3--3-----------3-|
A-1--1-----------1--------------1--1-----------1-|
E------------------------------------------------|

Guitar 2
e------------------------------------------------|
B-11--9------------------------------------------|
G-------10-10---------10h12p10-8-----------------|
D------------------------------------------------|
A------------------------------------------------|
E------------------------------------------------|

Gutiar 1
e------------------------------------------------|
B------------------------------------------------|
G-5--5-----------5--------------5--5-----------5-|
D-5--5-----------5--------------5--5-----------5-|
A-3--3-----------3--------------3--3-----------3-|
E------------------------------------------------|

Guitar 2
e-------------8-----------------8----------------|
B----------8----11-----------8----11-11----------|
G----8--10-------------8--10---------------------|
D-10---------------10----------------------------|
A------------------------------------------------|
E------------------------------------------------|

Guitar 1
e------------------------------------------------|
B------------------------------------------------|
G------------------------------------------------|
D-6--6--6--6--6--6--6--6--5--5--5--5--5--5--5--5-|
A-6--6--6--6--6--6--6--6--5--5--5--5--5--5--5--5-|
E-4--4--4--4--4--4--4--4--3--3--3--3--3--3--3--3-|

Guitar 2
e------------------------------------------------|
B------------------------------------------------|
G------------------------------------------------|
D-6--6--6--6--6--6--6--6--5--5--5--5--5--5--5--5-|
A-6--6--6--6--6--6--6--6--5--5--5--5--5--5--5--5-|
E-4--4--4--4--4--4--4--4--3--3--3--3--3--3--3--3-|


This is the order
Intro
Verse
chorus
Verse
Chorus
Solo
Chorus x3
Comments