Sahara Hotnights - Walk On The Wire Chords & Tabs

 

Walk On The Wire Chords & Tabs

Sahara Hotnights Chords & Tabs

Version: 1 Type: Chords 0 ratings
1 star 2 stars 3 stars 4 stars 5 stars
comments

Walk On The Wire Chords

   
Sahara Hotnights - Walk on the wire
Tabbed by kristoffer__karlsson@hotmail.com


e|-------------------------|---------------------------|----------------------------------|
B|--10-8-------------------|---------------------------|----------------------------------|
G|-------10-10-10^8--------|-8-10^8-----8-10-b10hold---|-10^8----8-10^8------8-10-b10hold-|
D|------------------10-10--|--------10-----------------|------10--------10----------------|
A|-------------------------|---------------------------|----------------------------------|
E|-------------------------|---------------------------|----------------------------------|


e|-------------------------|
B|--10-8-------------------|
G|-------10-10-10^8--------|
D|------------------10-10--|
A|-------------------------|
E|-------------------------|
[ Tab from: http://www.guitartabs.cc/tabs/s/sahara_hotnights/walk_on_the_wire_crd.html ]
C
Sunday comes and my baby's not here
A#
I make lonely weekend calls
C
I got to tell you something
                          A#
A kid saying I won't be bad no more
C                                         A#      G# G
Come on come on did you ever see my ghost before

G#           (A#)            C
Who's gonna walk on the wire
G#           (A#)            C
Who's gonna walk on the wire
G#           (A#?)            C
Stray cat you talk like a liar

One wrong step on the side of the road
Don't save me when I start to fall
One part luck, 99 part genius
Thin like a paper wall

Who's gonna walk on the wire
Who's gonna walk on the wire
I don't wanna be with no other

Comments