Sahara Hotnights - Breakdown Chords & Tabs

 

Breakdown Chords & Tabs

Sahara Hotnights Chords & Tabs

Version: 1 Type: Tab 0 ratings
1 star 2 stars 3 stars 4 stars 5 stars
comments

Breakdown Tab

Breakdown by SAHARA HOTNIGHTS
Tabbed by: bec (benfolds_five@hotmail.com)


INTRO:

Guitar 1
e|-------------------------------|-------------------------------------------|
B|-------------------------------|-------------------------------------------|
G|-12-12-12-11-11-11-10-10-------|-12-12-12-12-12-12-12-12-------------------|
D|-10-10-10-10-10-10-10-10--x3---|-10-10-10-10-10-10-10-10-------------------|
A|-------------------------------|-------------------------------------------|
E|-------------------------------|-------------------------------------------|x3

Guitar 2
e|-------------------------------|-------------------------------------------|
B|-----4-3-3-3-6-6---------------|-------------------------------------------|
G|-5-5---------5-5---------------|--5-5-5-5-5-5-5-5--------------------------|
D|--------------------------x3---|-------------------------------------------|
A|-------------------------------|-------------------------------------------|
E|-------------------------------|-------------------------------------------|x3

Note: that droning noise you hear after the drums come in, it's a C (8th pos. on E) with the occassional bend. And it slides up and down.


VERSE 1:

Guitar 1
e|--------------------------------------------------------------------------|
B|--------------------------------------------------------------------------|
G|-12-12-12-12-12-11-10-10-------12h15-12h15-17-----------------------------|
D|-10-10-10-10-10-10-10-10--x3----------------------------------------------|
A|--------------------------------------------------------------------------|
E|--------------------------------------------------------------------------|x2

Guitar 1 & 2
e|-----------------|
B|-----------------|
G|-5-5/------------|
D|-5-5/------------|
A|-3-3/------------|
E|-----------------|

Guitar 1
e|--------------------------------------------------------------------------|
B|--------------------------------------------------------------------------|
G|-12-12-12-12-12-11-10-10-------12h15-12h15-17-----------------------------|
D|-10-10-10-10-10-10-10-10--x3----------------------------------------------|
A|--------------------------------------------------------------------------|
E|--------------------------------------------------------------------------|x2


CHORUS:

Guitar 1 & 2
e|------------------------|-------------------------------------------------|
B|------------------------|-------------------------------------------------|
G|-5-5--------------------|-------------------------------------------------|
D|-5-5--3--3-3/8-8-8------|-5-5-5-5-5-5-5-5-5-5-5-5-4-4-3-3-----------------|
A|-3-3--3--3-3/8-8-8------|-5-5-5-5-5-5-5-5-5-5-5-5-4-4-3-3-----------------|
E|------1--1-1/6-6-6--x3--|-3-3-3-3-3-3-3-3-3-3-3-3-2-2-1-1-----------------|


POST-CHORUS:

Guitar 1
e|-------------------------------|-------------------------------------------|
B|-------------------------------|-------------------------------------------|
G|-12-12-12-11-11-11-10-10-------|-12-12-12-12-12-12-12-12-------------------|
D|-10-10-10-10-10-10-10-10--x3---|-10-10-10-10-10-10-10-10-------------------|
A|-------------------------------|-------------------------------------------|
E|-------------------------------|-------------------------------------------|

Guitar 2
e|-------------------------------|-------------------------------------------|
B|-----4-3-3-3-6-6---------------|-------------------------------------------|
G|-5-5---5-5-5-5-5---------------|--5-5-5-5-5-5-5-5--------------------------|
D|--------------------------x3---|-------------------------------------------|
A|-------------------------------|-------------------------------------------|
E|-------------------------------|-------------------------------------------|


VERSE 2:
[ Tab from: http://www.guitartabs.cc/tabs/s/sahara_hotnights/breakdown_tab.html ]
Guitar 1
e|--------------------------------------------------------------------------|
B|--------------------------------------------------------------------------|
G|-12-12-12-12-12-11-10-10-------12h15-12h15-17-----------------------------|
D|-10-10-10-10-10-10-10-10--x3----------------------------------------------|
A|--------------------------------------------------------------------------|
E|--------------------------------------------------------------------------|x2


CHORUS:

Guitar 1 & 2
e|------------------------|----------------------------------|
B|------------------------|----------------------------------|
G|-5-5--------------------|----------------------------------|
D|-5-5--3--3-3/8-8-8------|-5-5-5-5-5-5-5-5-5-5-5-5-4-4-3-3--|
A|-3-3--3--3-3/8-8-8------|-5-5-5-5-5-5-5-5-5-5-5-5-4-4-3-3--|
E|------1--1-1/6-6-6--x3--|-3-3-3-3-3-3-3-3-3-3-3-3-2-2-1-1--|x2

e|-----------------------------|
B|-----------------------------|
G|-5---------------------------|
D|-5-(let ring)----------------|
A|-3---------------------------|
E|-----------------------------|


BREAK:
(after Johanna does her thing)

Guitar 1
e|-------------------------------|-------------------------------------------|
B|-------------------------------|-------------------------------------------|
G|-12-12-12-11-11-11-10-10-------|-12-12-12-12-12-12-12-12-------------------|
D|-10-10-10-10-10-10-10-10--x3---|-10-10-10-10-10-10-10-10-------------------|
A|-------------------------------|-------------------------------------------|
E|-------------------------------|-------------------------------------------|

e|----15-15-15-15------------------------------------------------------------|
B|---------------------------------------------------------------------------|
G|-12--------------12-11-11-11-11-12--12-15-12-15/17-17-15-17-15-17-15-17----|
D|---------------------------------------------------------------------------|
A|---------------------------------------------------------------------------|
E|---------------------------------------------------------------------------|

e|---------------------------------15-15-15-15-------------------------------|
B|---------------------------------------------------------------------------|
G|-17^r/15-12-15-15-12-15-12-15-12-------------------------------------------|
D|---------------------------------------------------------------------------|
A|---------------------------------------------------------------------------|
E|---------------------------------------------------------------------------|

Guitar 2
e|-------------------------------|-------------------------------------------|
B|-----4-3-3-3-6-6---------------|-------------------------------------------|
G|-5-5---5-5-5-5-5---------------|--5-5-5-5-5-5-5-5--------------------------|
D|--------------------------x3---|-------------------------------------------|
A|-------------------------------|-------------------------------------------|
E|-------------------------------|-------------------------------------------|

e|------------------------|----------------------------------|
B|------------------------|----------------------------------|
G|-5-5--------------------|----------------------------------|
D|-5-5--3--3-3/8-8-8------|-5-5-5-5-5-5-5-5-5-5-5-5-4-4-3-3--|
A|-3-3--3--3-3/8-8-8------|-5-5-5-5-5-5-5-5-5-5-5-5-4-4-3-3--|
E|------1--1-1/6-6-6--x3--|-3-3-3-3-3-3-3-3-3-3-3-3-2-2-1-1--|


OUTRO:

Guitar 1 & 2
e|------------------------|----------------------------------|
B|------------------------|----------------------------------|
G|-5-5--------------------|----------------------------------|
D|-5-5--3--3-3/8-8-8------|-5-5-5-5-5-5-5-5-5-5-5-5-4-4-3-3--|
A|-3-3--3--3-3/8-8-8------|-5-5-5-5-5-5-5-5-5-5-5-5-4-4-3-3--|
E|------1--1-1/6-6-6--x3--|-3-3-3-3-3-3-3-3-3-3-3-3-2-2-1-1--|

End on C
e|-----------------|
B|-----------------|
G|-5-5/------------|
D|-5-5/------------|
A|-3-3/------------|
E|-----------------|
Comments