Sacred Steel - Lay Me To My Grave Chords & Tabs

 

Lay Me To My Grave Chords & Tabs

Sacred Steel Chords & Tabs

Version: 1 Type: Tab 0 ratings
1 star 2 stars 3 stars 4 stars 5 stars
comments

Lay Me To My Grave Tab

   
#----------------------------------PLEASE NOTE--------------------------------#
#This file is the author's own work and represents their interpretation of the#
#song. You may only use this file for private study, scholarship, or research.#
#-----------------------------------------------------------------------------#
#-- File created with Instab - http://www.pconline.com/~smcarey/instab.html --#
#-----------------------------------------------------------------------------#

Author/Artist: Sacred Steel
Title: Lay Me To My Grave
Album: Slaughter Prophecy - 2002
Transcribed by: Son Of Northern Dakness (Felipe Cepollini)
Email: ben_wrangle@hotmail.com
Date: 13,14,15/August/2003

. - palm mute
~ - vibrato
h - hammer on
/ - slide
[ Tab from: http://www.guitartabs.cc/tabs/s/sacred_steel/lay_me_to_my_grave_tab.html ]
  INTRO
e|----------------------------------------------------------------------|
B|----------------------------------------------------------------------|
G|----4-------------------------------4---------------------------------|
D|-4--4--5---------2--7--4---------4--4--5------------------------------|
A|-4--2--5---------2--7--4---------4--2--5------------------------------|
E|-2-----3--3-3-3--0--5--2--2-2-2--2-----3--3-3-3-3h5-555-5~-5h7-777-7~-|
            . . .           . . .           . . .
                                                                              
  VERSE RIFF 1st PART     VERSE RIFF 2nd PART
e|-----------------------|-------------------------------------------------|
B|-----------------------|-------------------------------------------------|
G|-----------------------|-------------------------------------------------|
D|-----------------------|-------------------------------------------------|
A|-4-----------5-----5-2-|-5-----------5-------5-4-5-----------5-----5-4-5-|
E|-2-22222222222-22222-2-|-3-33333333333-3333333-2-3-33333333333-33333-2-3-|
     ..........  ....        ..........  ......      ..........  .... 
 
  CHORUS 1st PART
e|------------------------------------------------------|
B|------------------------------------------------------|
G|----------4------------------7--------6----9--------9-|
D|-4--------4----2--------7----7--------6----9--------9-|
A|-4--------2----2--------7----5--5555554----7--7777777-|
E|-2--222222-----0--0000005-------......--------......--|
      ......        ......        

  CHORUS 2nd PART
e|---------------------------------------------------------------------|
B|---------------------------------------------------------------------|
G|---------------------4----------6------------------------------------|
D|----------------4------4---6------6----------------------------------|
A|-4--------5--4--5--5-----5-7--7-----7/4--------5--4-------5~------7~-|
E|-2--2-2-2-----------------------------2--2-2-2-------3-333---5-555---|
      . . .                                . . .       . ...   . ...

  END
e|---|
B|---|
G|---|
D|-4-|
A|-4-|
E|-2-|


SONGSTRUCTURE:
Intro: 4x
Verse riff 1st part: 2x -----|Repeat this
Verse riff 2nd part: 1x -----|sequence 4x
Chorus 1st part: 2x
Chorus 2nd part: 2x
Verse riff 1st part: 2x -----|Repeat this
Verse riff 2nd part: 1x -----|sequence 4x
Chorus 1st part: 2x
Chorus 2nd part: 2x
Intro: 2x
Chorus 1st part: 1x
Chorus 2nd part: 2x
Verse riff 1st part: 2x -----|Repeat this
Verse riff 2nd part: 1x -----|sequence 4x
Chorus 1st part: 2x
Chorus 2nd part: 4x
End: 1x


I don't know if the notes on the riffs are numbered correctly...... Anyway,
it doesn't matter, just listen the song, and get the rhythm.
Comments, sugestions, corrections, eulogies, jokes, just mail me.
Comments