Sacred Silence - This Ones For You Chords & Tabs

 

This Ones For You Chords & Tabs

Sacred Silence Chords & Tabs

Version: 1 Type: Tab 0 ratings
1 star 2 stars 3 stars 4 stars 5 stars
comments

This Ones For You Tab

Here's one of žacred žilence's newest songs, "This One's for You"

verse one
E------ E-----------------------------------|
B------ B-----------------------------------|
G------ G------0-------0-------0-------2----|
D------ D----2---2---0---0---2---2---3---3--|
A--0-2- A--3-------2-------0-------0--------|
E------ E-----------------------------------|

E-----------------------------------|
B-----------------------------------|
G------0-------0-------0-------2----|
D----2---2---0---0---2---2---3---3--|
A--3-------2-------0-------0--------|
E-----------------------------------|

E-----------------------------------|
B-----------------------------------|
G------0-------0-------0-------2----|
D----2---2---0---0---2---2---3---3--|
A--3-------2-------0-------0--------|
E-----------------------------------|

E-----------------------------------------|
B-----------------------------------------|
G------0-------0-------0-------2----------|
D----2---2---0---0---2---2---3---3-3-3-3--|
A--3-------2-------0-------0--------------|
E-----------------------------------------|

Chorus
E-------------------------------------------------------------------------|
B-------------------------------------------------------------------------|
G-------------------------------------------------------------------------|
D------2-------2---------0-------0---------2-------2---------3-------3----|
A--3-3---3---3---3---2-2---2---2---2---0-0---0---0---0---0-0---0---0---0--|
E-------------------------------------------------------------------------|

E-------------------------------------------------------------------------|
B-------------------------------------------------------------------------|
G-------------------------------------------------------------------------|
D------2-------2---------0-------0---------2-------2---------3-------3----|
A--3-3---3---3---3---2-2---2---2---2---0-0---0---0---0---0-0---0---0---0--|
E-------------------------------------------------------------------------|

E-----------|
B-----------|
G-----------|
D-----------|
A--0-0-0-0--|
E-----------|

verse two
E------ E-----------------------------------|
B------ B-----------------------------------|
G------ G------0-------0-------0-------0----|
D------ D----2---2---0---0---2---2---0---0--|
A--0-2- A--3-------2-------0-------2--------|
E------ E-----------------------------------|

E-----------------------------------|
B-----------------------------------|
G------0-------0-------0-------0----|
D----2---2---0---0---2---2---0---0--|
A--3-------2-------0-------2--------|
E-----------------------------------|

E-----------------------------------|
B-----------------------------------|
G------0-------0-------0-------0----|
D----2---2---0---0---2---2---0---0--|
A--3-------2-------0-------2--------|
E-----------------------------------|

E-------------------------------------------|
B-------------------------------------------|
G------0-------0-------0-------0------------|
D----2---2---0---0---2---2---0---0-0-0-0-0--|
A--3-------2-------0-------2----------------|
E-------------------------------------------|
[ Tab from: http://www.guitartabs.cc/tabs/s/sacred_silence/this_ones_for_you_tab.html ]
Chorus
E-------------------------------------------------------------------------|
B-------------------------------------------------------------------------|
G-------------------------------------------------------------------------|
D------2-------2---------0-------0---------2-------2---------3-------3----|
A--3-3---3---3---3---2-2---2---2---2---0-0---0---0---0---0-0---0---0---0--|
E-------------------------------------------------------------------------|

E-------------------------------------------------------------------------|
B-------------------------------------------------------------------------|
G-------------------------------------------------------------------------|
D------2-------2---------0-------0---------2-------2---------3-------3----|
A--3-3---3---3---3---2-2---2---2---2---0-0---0---0---0---0-0---0---0---0--|
E-------------------------------------------------------------------------|

E-----------|
B-----------|
G-----------|
D-----------|
A--0-0-0-0--|
E-----------|

Solo
E---------------| (4X)
B---------------|
G------2-----0--|
D----0---3-2----|
A--0------------|
E---------------|

E---------------------|
B---------------------|
G------2--------------|
D----0---0------------|
A--0-------0----------|
E------------0-0-0-0--|

verse three
E------ E-----------------------------------|
B------ B-----------------------------------|
G------ G-----------------------------------|
D------ D------0-------0-------0-------2----|
A------ A----2---2---0---0---2---2---3---3--|
E--0-2- E--3-------2-------0-------0--------|

E-----------------------------------|
B-----------------------------------|
G-----------------------------------|
D------0-------0-------0-------2----|
A----2---2---0---0---2---2---3---3--|
E--3-------2-------0-------0--------|

E-----------------------------------|
B-----------------------------------|
G-----------------------------------|
D------0-------0-------0-------2----|
A----2---2---0---0---2---2---3---3--|
E--3-------2-------0-------0--------|

E-----------------------------------------|
B-----------------------------------------|
G-----------------------------------------|
D------0-------0-------0-------2----------|
A----2---2---0---0---2---2---3---3-3-3-3--|
E--3-------2-------0-------0--------------|

Chorus
E-------------------------------------------------------------------------|
B-------------------------------------------------------------------------|
G-------------------------------------------------------------------------|
D-------------------------------------------------------------------------|
A------2-------2---------0-------0---------2-------2---------3-------3----|
E--3-3---3---3---3---2-2---2---2---2---0-0---0---0---0---0-0---0---0---0--|

E-------------------------------------------------------------------------|
B-------------------------------------------------------------------------|
G-------------------------------------------------------------------------|
D-------------------------------------------------------------------------|
A------2-------2---------0-------0---------2-------2---------3-------3----|
E--3-3---3---3---3---2-2---2---2---2---0-0---0---0---0---0-0---0---0---0--|

Closing
E------------------------------------------------------------------------| 4X
B------------------------------------------------------------------------|
G------------------------------------------------------------------------|
D------------------------------------------------------------------------|
A------2-------2---------0-------0---------2-------2---------3-------3---|
E--3-----3---3-------2-----2---2-------0-----0---0-------0-----0---0-----|

E------------3--|
B----------3----|
G--------0------|
D------0--------|
A----2----------|
E--3------------|
Comments