Sacred Pig Slop - The Ballad Of Adolf Shitler Chords & Tabs

 

The Ballad Of Adolf Shitler Chords & Tabs

Sacred Pig Slop Chords & Tabs

Version: 1 Type: Tab 0 ratings
1 star 2 stars 3 stars 4 stars 5 stars
comments

The Ballad Of Adolf Shitler Tab

This sequence is played through the entire song.

E[-------------------------------]
B[-------------------------------]
G[------------5-x----------------]
D[7-7-x-5-5-x-5-x-5-7------------]
A[7-7-x-5-5-x-3-x-5-7------------]
E[5-5-x-3-3-x-----3-5------------]Riff 1

E[-------------------------------]
B[-------------------------------]
G[------------5-x-7-9------------]
D[7-7-x-5-5-x-5-x-7-9------------]
A[7-7-x-5-5-x-3-x-5-7------------]
E[5-5-x-3-3-x--------------------]Riff 2
[ Tab from: http://www.guitartabs.cc/tabs/s/sacred_pig_slop/the_ballad_of_adolf_shitler_tab.html ]
E[-------------------------------]
B[-------------------------------]
G[------------5-x----------------]
D[7-7-x-5-5-x-5-x-5-7------------]
A[7-7-x-5-5-x-3-x-5-7------------]
E[5-5-x-3-3-x-----3-5------------]Riff 1

E[-------------------------------]
B[-------------------------------]
G[-------------------------------]
D[5-5-5-5-x-4--------------------]
A[5-5-5-5-x-4--------------------]
E[3-3-3-3-x-2--------------------]Riff 3

The solo will be added if I get time. http://sacredpigslop.fizz.nu
Comments