Sacred Pig Slop - Baghdad Blues Chords & Tabs

 

Baghdad Blues Chords & Tabs

Sacred Pig Slop Chords & Tabs

Version: 1 Type: Tab 0 ratings
1 star 2 stars 3 stars 4 stars 5 stars
comments

Baghdad Blues Tab

Verse

E[-------------------------------------]
B[-------------------------------------]
G[-------------------------------------]
D[5-5-x-8-8-x-10-10-x-10-x-10-x-10-x---]
A[5-5-x-8-8-x-10-10-x-10-x-10-x-10-x---]
E[3-3-x-6-6-x--8--8-x--8-x--8-x--8-x---]Riff 1

E[-------------------------------------]
B[-------------------------------------]
G[-------------------------------------]
D[5-5-x-8-8-x-10-10-x-10-x-10-x-10-x---]
A[5-5-x-8-8-x-10-10-x-10-x-10-x-10-x---]
E[3-3-x-6-6-x--8--8-x--8-x--8-x--8-x---]Riff 1

E[-------------------------------------]
B[-------------------------------------]
G[-------------------------------------]
D[5-5-x-8-8-x-10-10-x-8-8-x-5--3-------]
A[5-5-x-8-8-x-10-10-x-8-8-x-5--3-------]
E[3-3-x-6-6-x--8--8-x-6-6-x-3--1-------]Riff 2
[ Tab from: http://www.guitartabs.cc/tabs/s/sacred_pig_slop/baghdad_blues_tab.html ]
Bridge bit after each verse

E[-------------------------------------]
B[-------------------------------------]
G[--------------------9b-9-------------]
D[5-5-x-8-8-x-10-10-x------------------]
A[5-5-x-8-8-x-10-10-x------------------]
E[3-3-x-6-6-x--8--8-x------------------]Riff 3

E[-------------------------------------]
B[-------------------------------------]
G[--------------------9b-9-------------]
D[5-5-x-8-8-x-10-10-x------------------]
A[5-5-x-8-8-x-10-10-x------------------]
E[3-3-x-6-6-x--8--8-x------------------]Riff 3

E[-------------------------------------]
B[-------------------------------------]
G[---------------------------4b-2b-2p0-]
D[5-5-x-8-8-x-10-10-x-8-8-x-5--3-------]
A[5-5-x-8-8-x-10-10-x-8-8-x-5--3-------]
E[3-3-x-6-6-x--8--8-x-6-6-x-3--1-------]Riff 4

Comments