Rzeznik Johnny - Im Still Here Chords & Tabs

 

Im Still Here Chords & Tabs

Rzeznik Johnny Chords & Tabs

Version: 2 Type: Tab 0 ratings
1 star 2 stars 3 stars 4 stars 5 stars
comments

Im Still Here Tab

   
This is at least 99% correct, if you have any questions e-mail me: 
TheOffspringLP@hotmail.com


Drop D tuning

Intro:  A D

Verse:  
A  D A D  A D Bm  D

Pre Chorus:  
F#  E  D 

Riff 1: (this is play after the D)

E ---------------------------------------------------------- 
B----------------------------------------------------------
G-----------------------------------------------------------
D-----------------------------------------------------------
A ----5-4-0-5-4-0----------------------------------------
D------------------------------------------------------------
[ Tab from: http://www.guitartabs.cc/tabs/r/rzeznik_johnny/im_still_here_tab_ver_2.html ]
Chorus:
A  D  A  D A  D  Bm D

End Chorus: (Cuz I’m still here)
F#  E  D followed by Riff 1

Bridge:
D  E  F#  (Riff 1)  D  E  F# (Riff 1)  D  E  F#  (Riff 1) 
D  E  F#  F#  (Riff 1)  (Riff 1)

Chords
            A           D        F#        E          Bm
E-----------------------2-------------------------------    
B------------2----------3------------------------------3
G------------2----------2------------------------------4
D------------2----------0--------4---------2-----------4
A------------0----------0--------4---------2-----------2
D-----------------------0--------4---------2------------
Comments