Rye Coalition - The Lipstick Game Chords & Tabs

 

The Lipstick Game Chords & Tabs

Rye Coalition Chords & Tabs

Version: 1 Type: Tab 0 ratings
1 star 2 stars 3 stars 4 stars 5 stars
comments

The Lipstick Game Tab

   
#----------------------------------PLEASE NOTE--------------------------------#
#This file is the author's own work and represents their interpretation of the#
#song. You may only use this file for private study, scholarship, or research.#
#-----------------------------------------------------------------------------#

Date:01/18/2004
------------------------------------------------------------------------------
Homepage: www.ryecoalition.com
Country: USA

          SONG: The Lipstick Game
BAND OR ARTIST: Rye Coalition
FROM THE ALBUM: The Lipstick Game
TRANSCRIBED BY: Geoff/Kyle
------------------------------------------------------------------------------

Guitar Tuning: E A D G B E

Intro/Verse
e------------------------------------------------------------------|--
B--8-88--77----8-88--77---9----8-88--77----8-88--6-55--------------|  |
G--9-99--88----9-99--88---10---9-99--88----9-99--7-66--------------|  | 
D--9-99--88----9-99--88---10---9-99--88----9-99--7-66--------------|  |
A--7-77--66----7-77--66---8----7-77--66----7-77--5-44--------------|  |
E------------------------------------------------------------------|  |
                                                                      |
                                                               X A    |
                                                              Bunch   |
                                                                      |
e------------------------------------------------------------------|  |
B------------------------------------------------------------------|  |
G--8-88--77----8-88--77---9----8-88--77----8-88--------------------|  | 
D--9-99--88----9-99--88---10---9-99--88----9-99--------------------|  |
A--9-99--88----9-99--88---10---9-99--88----9-99--------------------|  |
E--7-77--66----7-77--66---8----7-77--66----7-77--------------------|--|



Chorus 1
e------------------------------------------------------------------|
B------------------------------------------------------------------|
G----9999999988888888-9999999988888888-----------------------------|
D------------------------------------------------------------------|
A------------------------------------------------------------------|
E------------------------------------------------------------------|



e---------------------------------------------------------------------|
B--8-88--77----8-88--77---9----8-88--77----8-88--77-6----1010/9-/10---|
G--9-99--88----9-99--88---10---9-99--88----9-99--88-7----1111/10/11-x2|
D--9-99--88----9-99--88---10---9-99--88----9-99--88-7----1111/10/11---|
A--7-77--66----7-77--66---8----7-77--66----7-77--66-5----9-9-/8-/9----|
E---------------------------------------------------------------------|


[ Tab from: http://www.guitartabs.cc/tabs/r/rye_coalition/the_lipstick_game_tab.html ]
Chorus 2
e------------------------------------------------------------------|
B------------------------------------------------------------------|
G----9999999988888888-9999999988888888-----------------------------|
D------------------------------------------------------------------|
A------------------------------------------------------------------|
E------------------------------------------------------------------|



e------------------------------------------------------------------|
B--8-88--77----8-88--77---9----8-88--77----8-88--7-----------------|
G--9-99--88----9-99--88---10---9-99--88----9-99--8-----------------|
D--9-99--88----9-99--88---10---9-99--88----9-99--8-----------------|
A--7-77--66----7-77--66---8----7-77--66----7-77--6-----------------|
E------------------------------------------------------------------|



e------------------------------------------------------------------|
B------------------------------------------------------------------|
G--1010/9-/10-------------88/7/8-----------------------------------|
D--1111/10/11--x4---------99/8/9--x4-------------------------------|
A--1111/10/11-------------99/8/9-----------------------------------|
E--9-9-/8-/9--------------77/6/7-----------------------------------|


Solo/Interlude
e------------------------------------------------------------------|
B------------------------------------------------------------------|
G--------------11-11b-9----------11-11b-9--------------------------|x2
D--11-11-10-11----------11-10-11-----------------------------------|
A------------------------------------------------------------------|
E------------------------------------------------------------------|



e------------------------------------------------------------------|
B------------------------------------------------------------------|
G----------9-9b-7-------9-9b-7-------------------------------------|x2
D--9-9-8-9--------9-8-9--------------------------------------------|
A------------------------------------------------------------------|
E------------------------------------------------------------------|


Played in background
e------------------------------------------------------------------|
B------------------------------------------------------------------|
G--9--9--8--9--------------7-7-6-7---------------------------------|
D--10-10-8--10-x4----------8-8-6-8-x4------------------------------|
A--10-10-8--10-------------8-8-6-8---------------------------------|
E--8--8--8--8--------------6-6-6-6---------------------------------|


Outro
e------------------------------------------------------------------|
B------------------------------------------------------------------|
G--1010/9-/10--------------88/7/8----------------------------------|
D--1111/10/11--x4----------99/8/9--x4------------------------------|
A--1111/10/11--------------99/8/9----------------------------------|
E--9-9-/8-/9---------------77/6/7----------------------------------|



e------------------------------------------------------------------|
B------------------------------------------------------------------|
G--66/5/6--------------44/3/4--------1010/9-/10--------------------|
D--77/6/7--x4----------55/4/5--x4----1111/10/11--------------------|
A--77/6/7--------------55/4/5--------1111/10/11--------------------|
E--55/4/5--------------33/4/3--------9-9-/8-/9---------------------|
Comments