Ryczek Matt - Your Man Chords & Tabs

 

Your Man Chords & Tabs

Ryczek Matt Chords & Tabs

Version: 1 Type: Tab 0 ratings
1 star 2 stars 3 stars 4 stars 5 stars
comments

Your Man Tab

Your Man
by Matt Ryczek

Capo 4
Standard Tuning

Intro/Break
E -----------------------------------------------------3-----
B ---------1---------0h1-----------------1-----1h3--0-------- (x2)
G ------0-----0----0-----0---------2------------------------- 
D -0h2-----------2----------2---3-----3-----3---------------- 
A -----------------------------------------------------------  
E ----------------------------------------------------------- 
                                                              

Verse 1
E -------------------
B --1----1---1--3----
G --0----2---2--0---- (x4)
D --0h2--2---3--0----
A --3----0---3--2----
E --------------3----

Pre Chorus 1
E -----3-------------------0------3-------------
B -----1-------0-----------1------1---------0---
G ---2---2-----0-0-----2--------2---2-----0--0-- (Go to Break)
D -3---------2-------2---2----3---------2------- 
A ---------3-------0-------0----------3--------- 
E ----------------------------------------------
[ Tab from: http://www.guitartabs.cc/tabs/r/ryczek_matt/your_man_tab.html ]
Verse 2
E -------------------
B --1----1---1--3----
G --0----2---2--0---- (x4)
D --0h2--2---3--0----
A --3----0---3--2----
E --------------3----

Pre Chorus 2
E -----3---------------------0------3-------------------------
B -----1--------0------------1------1------0--------------*?*-
G ---2---2------0--0-----2--------2---2----0--0-------*11*---- 
D -3---------2---------2---2----3--------2---------*8*--------
A ---------3---------0-------0---------3--------*8*----------- 
E ------------------------------------------------------------

The * are pinch harmonics. I can't, for the life of me, figure out that last pinch
harmonic. If anyone figures it out, please let me know!

Chorus
E --------3--------------------------------------------
B --------1----------0-----------1------1------0p1-----
G -----2-----2-------0--0------0------0------------2--- (x3)
D --3-------------0----------2------0--------2--------- 
A -------------------------3------2--------0----------- 
E --------------3--------------------------------------

4th Time
E --------3------------------------
B --------1----------0h10h10h10h1--
G -----2-----2-------0-------------
D --3-------------0---------------- 
A --------------------------------- 
E --------------3------------------
Comments