Ryczek Matt - Goodbye Chords & Tabs

 

Goodbye Chords & Tabs

Ryczek Matt Chords & Tabs

Version: 1 Type: Tab 0 ratings
1 star 2 stars 3 stars 4 stars 5 stars
comments

Goodbye Tab

Goodbye
by Matt Ryczek

Capo 1 - Tabs are relative to the Capo
Tune the D string down a half a step(C#) before applying the Capo

I highly doubt this is how he plays it, but this is how I learned
it and it sounds the same. It's not a perfect tab, but you can 
sound the rest out as you go.


Intro/Verse

E --------0-------0-------0---------0--------0--------0-(let last note ring)
B ------2-------2-------2---------2--------2--------2---
G ----1-------1-------1---------1--------1--------1-----
D --0-------0------------------------------------------- (x2 during the intro)
A ------------------2--------2---------0--------0-------
E ------------------------------------------------------

Verse
[ Tab from: http://www.guitartabs.cc/tabs/r/ryczek_matt/goodbye_tab.html ]
E --------0-------0-------0---------0--------0--------0-
B ------2-------2-------2---------2--------2--------2---
G ----1-------1-------1---------1--------1--------1-----
D --0-------0------------------------------------------- (x9)
A ------------------2--------2---------0--------0-------
E ------------------------------------------------------


E --------0-------0------0---
B ---------------------------
G ----1-2-----1-2----1-2-----
D --0------------------------ 
A ----------2--------0-------
E ---------------------------

E --------0-------0-------0---------0--------0--------0-
B ------2-------2-------2---------2--------2--------2---
G ----1-------1-------1---------1--------1--------1-----
D --0-------0------------------------------------------- (x4)
A ------------------2--------2---------0--------0-------
E ------------------------------------------------------

Chorus

E --------2------------2-------------2----------   
Comments