Ryan Tedder - I Will Try Chords & Tabs

 

I Will Try Chords & Tabs

Ryan Tedder Chords & Tabs

Version: 1 Type: Tab 0 ratings
1 star 2 stars 3 stars 4 stars 5 stars
comments

I Will Try Tab

Tabbed by: Kristone
Song: I Will Try
Artist: Ryan Tedder
Email: duckeee322@yahoo.com

this is my very first tab, so dont expect much =)

CAPO on 1st fret.

INTRO:
e-------0--------0h2-0--|-------0-----------------------------|
b----1h3---3------------|----1h3---3-----0-----1--1-----------|
g----0-----0-----0------|----0-----0-----0-----0--0-----------|
d-----------------------|-------------------------------------|
a----0-----2-----3------|----0-----2--------------------------|
e-----------------------|----------------0-----1--1-----------|

Verse 1:
Called you. .            just to see.. 
e-------0--------0h2-0--|-------0-----------------------------|
b----1h3---3------------|----1h3---3-----0-----1--------------|
g----0-----0-----0------|----0-----0-----0-----0--------------|
d-----------------------|-------------------------------------|
a----0-----2-----3------|----0-----2--------------------------|
e-----------------------|----------------0-----1--------------|

I'm trying to show..     love I no..
e-------0--------0h2-0--|-------------------------------------|
b----1h3---3------------|----1-----3-----1--------------------|
g----0-----0-----0------|----0-----0-----0--------------------|
d-----------------------|-------------------------------------|
a----0-----2-----3------|----0-----2--------------------------|
e-----------------------|----------------1--------------------|

Chorus:
So tonight..
e------------------------|
b---1-----3-----1-----0--|
g---0-----0-----0-----0--|
d------------------------|
a---3-----2-----0--------|
e---------------------3--| x2

next time that you..       I promise you..
e------------------------|------------------------------------|
b---1-----3-----1-----3--|---1-----3-----1--------------------|
g---0-----0-----0-----0--|---0-----0-----0--------------------|
d---------------------0--|------------------------------------|
a---3-----2-----0--------|---0-----2--------------------------|
e------------------------|---------------1--------------------|

INTRO

Verse 2:
I cannot read..          I'm asking you..
e-------0--------0h2-0--|-------0-----------------------------|
b----1h3---3------------|----1h3---3-----0-----1--------------|
g----0-----0-----0------|----0-----0-----0-----0--------------|
d-----------------------|-------------------------------------|
a----0-----2-----3------|----0-----2--------------------------|
e-----------------------|----------------0-----1--------------| 
[ Tab from: http://www.guitartabs.cc/tabs/r/ryan_tedder/i_will_try_tab.html ]
If you would..           these words will..
e-------0--------0--0---|---0--0------------------------------|
b----1h3---3------------|---0--0---1--1---1--1---1--1-----1---|
g----0-----0-----0--0---|----------0--0---0--0---0--0-----0---|
d-----------------------|-------------------------------------|
a----0-----2-----3--3---|-------------------------------------|
e-----------------------|---4--4---3--3---2--2---1--1-----1---|

CHORUS

Bridge:
I will try..
e---------------------------------------------|
b---1--1---3--3---0--0---1--1---1--1----1-----|
g---0--0---0--0---0--0---0--0---0--0----0-----|
d---------------------------------------------|
a---0--0---2--2-------------------------------|
e-----------------4--4---3--3---1--1----3-----| 

Ending Chorus:
So tonight..
e------------------------|
b---1-----3-----1-----0--|
g---0-----0-----0-----0--|
d------------------------|
a---3-----2-----0--------|
e---------------------3--| x2

next time that you..       I promise you..
e------------------------|------------------------------------|
b---1-----3-----1-----3--|---1h3--3---3p1--0---1---1----------|
g---0-----0-----0-----0--|---0----0---0----0---0---0----------|
d---------------------0--|------------------------------------|
a---3-----2-----0--------|---0----2---0-----------------------|
e------------------------|-----------------4---3---1----------|

I promise you..
e------------------------|
b---1h3--3---1-----------|
g---0----0---0-----------|
d------------------------|
a---0----2---0-----------|
e------------------------| 

INTRO x2

Ending:
e------------------------|
b---1h3--3---1-----------|
g---0----0---0-----------|
d------------------------|
a---0----2---0-----------|
e------------------------| 


Lyrics:

Tonight I sit awake and wonder 
I sit awake, I cannot fake the slumber 

*guitar* 

Called you late last night 
just to see if you'd answer 
to know you're alright 
I'm trying to show what I feel inside 
love I no longer can hide 

So tonight I sit awake and I try 
to count the minutes til the next time that you and I are together 
I promise you that I will try 
I will try... 
Ooohhh... 

I cannot read your mind 
I'm asking you questions, and I wait for replies 
If you would say the words I'm wanting you to say 
these words will draw us nearer, I'm seeing things clearer 
and right now that try as I may to hold you tight 
it's gonna be another lonely night 

Tonight... 
I sit awake and I try... 
to count the minutes til the next time that you and I are together 
I promise you that I will try 
I will try to be the one that you need 
if you just reach out for me 
I will always be there 
I swear... *hits a really high note* 

Tonight... 
I sit awake and I try... 
to count the minutes til the next time that you and I are together 
I promise you that, I promise you that, I promise... you that 
I promise you that I will try 
I will try... 
Ooohhh... 
Eeehhh 

Baaa Baaabe 

Ooohhh... 

*ends softly*
Comments