Ryan Tedder - All For You Chords & Tabs

 

All For You Chords & Tabs

Ryan Tedder Chords & Tabs

Version: 1 Type: Tab

All For You Tab

All For You – Ryan Tedder

Capo on 1st fret
Listen for when he palm mutes it.
*Also this isn’t tabbed in proportion to the beat, meaning the space between each notes 
exact, you just have to listen for when to play it.

Verse:
E|-----------------------------------------------------------|
B|----0—-0h1------0-1----------0—-0h1------0-1---------------|
G|----0--0----0---0-0--0--0----0--0----0---0-0--0--0---------|
D|-----------------------------------------------------------|
A|--3----3------3------------0----0------0-------------------|
E|-----------------------------------------------------------|

E|-----------------------------------------------------------|
B|----0—-0h1------0-1----------0—-0----1---1h3---------------|
G|----0--0----0---0-0--0--0----0--0----0---0-----------------|
D|-----------------------------------------------------------|
A|-----------------------------------------------------------|
E|--1----1------1-------------3---3--------------------------|   x2

*Note: there are some variations when he plays through it the 2nd time through*
[ Tab from: http://www.guitartabs.cc/tabs/r/ryan_tedder/all_for_you_tab.html ]
Pre-chorus:
E|-----------------------------------------------------------|
B|----1—-1---1---1--1----------1—-1---------1--1-------------|
G|----2--2---2---2--2--2--0----0--0--0--0---0--0-------------|
D|-----------------------------------------------------------|
A|--0----------0---------------------------------------------|
E|----------------------------1------------1-----------------|

E|-----------------------------------------------------------|
B|--1—-1--1---1--1--1---3--3--3---3--------------------------|
G|--0--0------0--0---0--0--0------0--------------------------|
D|-----------------------------------------------------------|
A|--1--1----1-----------2--2----2----------------------------|
E|-----------------------------------------------------------|

Chorus:

E|-----------------------------------------------------------|
B|----3-3---------3-3---------1-1--------1—-1s3--------------|
G|----0-0--0-0----0-0--0-0----0-0--0-0---0—-0----------------|
D|-----------------------------------------------------------|
A|--3-----------2-----------0--------------------------------|
E|--------------------------------------1---1s3--------------| x2

(On the 2nd repeat, it changes around the end^ right there. Same notes, but just 
plucking and hammering)

E|-----------------------------------------------------------|
B|---1—-1----3-------0-0h1—1h3-1-1---------------------------|
G|---0--0-0----------0-0-------------------------------------|
D|-----------------------------------------------------------|
A|--1---1----2------3--3-------------------------------------|
E|-----------------------------------------------------------|

   ^“There’s nothing I wouldn’t do, it’s all for you”^