Ryan Leslie - Gibberish Chords & Tabs

 

Gibberish Chords & Tabs

Ryan Leslie Chords & Tabs

Version: 2 Type: Tab 0 ratings
1 star 2 stars 3 stars 4 stars 5 stars
comments

Gibberish Tab

   
-------------------------------------------------------------------------------
                             SONG NAME - Band Name
-------------------------------------------------------------------------------
Tabbed by: Barry G.
Email:

Tuning: Standard


Intro:
e|--1--1--1--1--1----1----1----0--|
B|--1--1--1--1--1----3----3----1--|
G|--2--2--2--2--2----2----3----0--|
D|--3--3--3--3--3----0----0----2--|
A|--X--X--X--X--X----X----X----3--|
E|--X--X--X--X--X----X----X----X--|

e|--0----1----1----0--------------|
B|--1----3----3----1--------------|
G|--2----2----3----0--------------|
D|--2----0----0----2--------------|
A|--0----X----X----3--------------|
E|--X----X----X----X--------------|


Guitar 1: VERSE/CHORUS: (Repeat throughout song)a
e|--1----1----1----0----0----1----1----0----------|
B|--1----3----3----1----1----3----3----1----------|
G|--2----2----3----0----2----2----3----0----------|
D|--3----0----0----2----2----0----0----2----------|
A|--X----X----X----3----0----X----X----3----------|
E|--X----X----X----X----X----X----X----X----------|


Guitar 2: Chorus(This is all supposed to be played continuously. I just parted this so 
it is easier to learn.)

e|-5-5--3-3--5-5--8-8--5-5--3-3--5-5--8-8--|
B|-----------------------------------------|
G|-----------------------------------------|
D|-----------------------------------------|
A|-----------------------------------------|
E|-----------------------------------------|

e|-10-10--13-13--10-10--13-13--15--17--15--13--10--13--10--13-|
B|------------------------------------------------------------|
G|------------------------------------------------------------|
D|------------------------------------------------------------|
A|------------------------------------------------------------|
E|------------------------------------------------------------|

e|-8-8--10-10--5-5--8-8--3-3--5-5--1-1--3-3|
B|-----------------------------------------|
G|-----------------------------------------|
D|-----------------------------------------|
A|-----------------------------------------|
E|-----------------------------------------|
[ Tab from: http://www.guitartabs.cc/tabs/r/ryan_leslie/gibberish_tab_ver_2.html ]
e|----1--3--5--3--1-----1------------------|
B|-3-----------------3---------------------|
G|-----------------------------------------|
D|-----------------------------------------|
A|-----------------------------------------|
E|-----------------------------------------|

e|----1--3--5--3--1-----1------------------|
B|-3-----------------3---------------------|
G|-----------------------------------------|
D|-----------------------------------------|
A|-----------------------------------------|
E|-----------------------------------------|

e|-5-5--3-3--5-5--8-8--5-5--3-3--5-5--8-8--|
B|-----------------------------------------|
G|-----------------------------------------|
D|-----------------------------------------|
A|-----------------------------------------|
E|-----------------------------------------|

e|-10--13--10--13--15--17--15--13--10--13--10-|
B|--------------------------------------------|
G|--------------------------------------------|
D|--------------------------------------------|
A|--------------------------------------------|
E|--------------------------------------------|

e|-8--5--8--5--3--3-3--1--3--5--8--5--3----|
B|-----------------------------------------|
G|-----------------------------------------|
D|-----------------------------------------|
A|-----------------------------------------|
E|-----------------------------------------|

e|-3--1--3--5--8--5--8--10--8-8--5-5--8-10-|
B|-----------------------------------------|
G|-----------------------------------------|
D|-----------------------------------------|
A|-----------------------------------------|
E|-----------------------------------------|

e|-8-8--3-3--5-5--1-1--3-3--1----------------|
B|-------------------------------------------|
G|-------------------------------------------|
D|-------------------------------------------|
A|-------------------------------------------|
E|-------------------------------------------|

Ryan Leslie's Official website: http://www.ryanleslie.com/
************************************

| /   slide up
| \   slide down
| h   hammer-on
| p   pull-off
| ~   vibrato
| +   harmonic
| x   Mute note
| b   Bend
| pb  Pre-bend
| br  Bend release
| pbr Pre-bend release
| brb Bend release bend

************************************
Comments