Ryan Cabrera - True Chords & Tabs

 

True Chords & Tabs

Ryan Cabrera Chords & Tabs

Version: 4 Type: Tab 0 ratings
1 star 2 stars 3 stars 4 stars 5 stars
comments

True Tab

##############################################################

Ryan Cabrera - True

##############################################################
Tabbed by: Kurt Laurinaitis
Email: ironsuperman@gmail.com
Date: 2/2/04
Tuning: half step down from normak\l (I put capo on 1st fret and tune regular from there)


INTRO
e|-----0--x---------x-----------x------x|     x2
B|--------x---3-----x--1----1---x---0--x|
G|--5-----x---4--4--x--0h2------x---0--x|
D|--0-----x---0-----x--0--------x---0--x|
A|--------x---------x-----------x------x|
E|--3-----x---3-----x--3--------x---3--x|


VERSE

    I  wont   talk           I wont   breathe         i wont   move, till you 
e|---------x----------x------------x-----------x------------x-----------------|
B|---------x----------x------------x-----------x------------x-----------------|
G|-----5---x--4-------x---5-5------x---4---0---x---------5--x--4--------------|
D|-----0---x--3-------x---0-0------x---3-------x---------0--x--3--------------|
A|---------x----------x------------x-----------x------------x-----------------|
E|--3------x--3-------x---3-3------x---3-------x------3-----x--3--------------|








    finally   see             That you  belong with   me.
e|---------x--------x------|---------------------x----------0---x---------x--------0--|
B|---------x--------x------|---------------------x--------------x---------x-----------|
G|--5-5----x--4---4-x------|------------2--------x----0---------x---0h2---x---0-------|
D|--0-0----x--0-----x------|------------0--------x----2---------x---0-----x---2-------|
A|---------x--------x------|------------2--------x--------------x---2-----x-----------|
E|--3-3----x--3-----x------|---------------------x----0---------x---------x---0-------|

    you might think     that i dont look         but deep inside              
e|---------x----------x------------x-----------x------------x-----|
B|---------x----------x------------x-----------x------------x-----|
G|-----5---x--4-------x---5-5------x---4---0---x---------5--x--4--|
D|-----0---x--3-------x---0-0------x---3-------x---------0--x--3--|
A|---------x----------x------------x-----------x------------x-----|
E|--3------x--3-------x---3-3------x---3-------x------3-----x--3--|

  the corner of my mind    i'm  attatched to you 
e|x----------x--------x---------------------x----------0---x---------x--------0--|
B|x----------x--------x---------------------x--------------x---------x-----------|
G|x---5-5----x--4---4-x------------2--------x----0---------x---0h2---x---0-------|
D|x---0-0----x--0-----x------------0--------x----2---------x---0-----x---2-------|
A|x----------x--------x------------2--------x--------------x---2-----x-----------|
E|x---3-3----x--3-----x---------------------x----0---------x---------x---0-------|

(Pre-chorus)
      				 I'm weak              
e|-----------------x---0-----------x---------------x---------------x|
B|-----3-----------x-------3-------x---7-----------x-------7-------x|
G|-----0--3--------x---------------x---------------x-----0---------x|
D|-----------------x---------------x-----7---------x---------------x|
A|-----3-----------x---------------x---5-----------x---5-----------x|
E|-----------------x---------------x---------------x---------------x|


  its true		  Cause I'm  afraid     to   know the answer 	
                         				      ending	
e|-----------------x---------------x---------------x---------------x|
B|-----8-----------x-------8-------x---7-----------x-------7-------x|
G|-------0---------x---------------x-----7---------x-----0---------x|
D|-----------------x-----9---------x---------------x---------------x|
A|-----7-----------x---7-----------x---5-----------x---5-----------x|
E|-----------------x---------------x---------------x---------------x|

                               do         you          want me too?          cause my 
                                                       see                      or do 
e|----------x---0-----------x---------------x---------------x------------x-----------|
B|-----3----x-------3-------x---7-----------x-------7-------x---8--------x------8----|
G|-----0-3--x---------------x---------------x-----0---------x-----0------x-----------|
D|----------x---------------x-----7---------x---------------x------------x----9------|
A|-----3----x---------------x---5-----------x---5-----------x---7--------x--7--------|
E|----------x---------------x---------------x---------------x------------x-----------|

     heart keeps falling faster     (strum)
     even  know  you  met me	
e|---------------x---------------x---0---x|
B|---7-----------x-------7-------x---3---x|
G|---------------x-----0---------x---0---x|
D|-----7---------x---------------x---0---x|
A|---5-----------x---5-----------x---3---x|
E|---------------x---------------x-------x|

(chorus)

I've waited all my life
e|---------------x---3-----------x|
B|---------------x---3-----------x|
G|------------0--x---0-----------x|
D|---------------x---------------x|
A|---------------x---------------x|
E|-----------3---x---3-----------x|

            to cross this line
e|---------------x---3-----------x|
B|---------------x---3-----------x|
G|------------0--x---0-----------x|
D|---------------x---------------x|
A|---------------x---------------x|
E|-----------2---x---2-----------x|

            do the only thing thats true.
e|---------------x--------3------x---------------x--3------------x|
B|---------------x--------3------x---------------x--3------------x|
G|------------0--x--------0------x---------------x--0------------x|
D|---------------x---------------x-----2---------x--2------------x|
A|---------------x---------------x---3-----------x--3------------x|
E|-----------0---x--------0------x---------------x---------------x|

            so i will not hide,
e|---------------x---3-----------x|
B|---------------x---3-----------x|
G|------------0--x---0-----------x|
D|---------------x---------------x|
A|---------------x---------------x|
E|-----------3---x---3-----------x|

        its time to try,
e|---------------x---3-----------x|
B|---------------x---3-----------x|
G|------------0--x---0-----------x|
D|---------------x---------------x|
A|---------------x---------------x|
E|-----------2---x---2-----------x|

            anything to be     with you,
e|---------------x--------3------x---------------x--3------------x|
B|---------------x--------3------x---------------x--3------------x|
G|------------0--x--------0------x---------------x--0------------x|
D|---------------x---------------x-----2---------x--2------------x|
A|---------------x---------------x---3-----------x--3------------x|
E|-----------0---x--------0------x---------------x---------------x|

     all my          life i've          waited,
e|---------------x---------------x---------------x|
B|----0----------x-----8---------x--------4------x|
G|----0----------x-----7---------x--------3------x|
D|----7----------x-----9---------x--------5------x|
A|---5-----------x---------------x---------------x|
E|---------------x---------------x---------------x|

this is true.
e|-------------x----------x------------x-----------x|
B|-------------x----------x------------x-----------x|
G|---------5---x--4-------x---5-5------x---4-------x|
D|---------0---x--3-------x---0-0------x---3-------x|
A|-------------x----------x------------x-----------x|
E|------3------x--3-------x---3-3------x---3-------x|



      you don't know          what you do                 everytime     you     
e|-------------x----------x------------x-----------x------------x---------------|
B|-------------x----------x------------x-----------x------------x---------------|
G|---------5---x--4-------x---5-5------x---4---0---x---------5--x--4------------|
D|---------0---x--3-------x---0-0------x---3-------x---------0--x--3------------|
A|-------------x----------x------------x-----------x------------x---------------|
E|------3------x--3-------x---3-3------x---3-------x------3-----x--3------------|

[ Tab from: http://www.guitartabs.cc/tabs/r/ryan_cabrera/true_tab_ver_4.html ]
  walk into a room         i'm  afraid to     move 
e|--x----------x--------x-------------------x----------0---x---------x--------0-|
B|--x----------x--------x-------------------x--------------x---------x----------|
G|--x---5-5----x--4---4-x----------2--------x----0---------x---0h2---x---0------|
D|--x---0-0----x--0-----x----------0--------x----2---------x---0-----x---2------|
A|--x----------x--------x----------2--------x--------------x---2-----x----------|
E|--x---3-3----x--3-----x-------------------x----0---------x---------x---0------|

(Pre-chorus)
      				 I'm weak              
e|-----------------x---0-----------x---------------x---------------x|
B|-----3-----------x-------3-------x---7-----------x-------7-------x|
G|-----0--3--------x---------------x---------------x-----0---------x|
D|-----------------x---------------x-----7---------x---------------x|
A|-----3-----------x---------------x---5-----------x---5-----------x|
E|-----------------x---------------x---------------x---------------x|


  its true		  Cause I'm  afraid     to   know the answer 	
                         				      ending	
e|-----------------x---------------x---------------x---------------x|
B|-----8-----------x-------8-------x---7-----------x-------7-------x|
G|-------0---------x---------------x-----7---------x-----0---------x|
D|-----------------x-----9---------x---------------x---------------x|
A|-----7-----------x---7-----------x---5-----------x---5-----------x|
E|-----------------x---------------x---------------x---------------x|

                               do         you          want me too?          cause my 
                                                       see                      or do 
e|----------x---0-----------x---------------x---------------x------------x-----------|
B|-----3----x-------3-------x---7-----------x-------7-------x---8--------x------8----|
G|-----0-3--x---------------x---------------x-----0---------x-----0------x-----------|
D|----------x---------------x-----7---------x---------------x------------x----9------|
A|-----3----x---------------x---5-----------x---5-----------x---7--------x--7--------|
E|----------x---------------x---------------x---------------x------------x-----------|

     heart keeps falling faster     (strum)
     even  know  you  met me	
e|---------------x---------------x---0---x|
B|---7-----------x-------7-------x---3---x|
G|---------------x-----0---------x---0---x|
D|-----7---------x---------------x---0---x|
A|---5-----------x---5-----------x---3---x|
E|---------------x---------------x-------x|

(chorus)

I've waited all my life
e|---------------x---3-----------x|
B|---------------x---3-----------x|
G|------------0--x---0-----------x|
D|---------------x---------------x|
A|---------------x---------------x|
E|-----------3---x---3-----------x|

            to cross this line
e|---------------x---3-----------x|
B|---------------x---3-----------x|
G|------------0--x---0-----------x|
D|---------------x---------------x|
A|---------------x---------------x|
E|-----------2---x---2-----------x|

            do the only thing thats true.
e|---------------x--------3------x---------------x--3------------x|
B|---------------x--------3------x---------------x--3------------x|
G|------------0--x--------0------x---------------x--0------------x|
D|---------------x---------------x-----2---------x--2------------x|
A|---------------x---------------x---3-----------x--3------------x|
E|-----------0---x--------0------x---------------x---------------x|

            so i will not hide,
e|---------------x---3-----------x|
B|---------------x---3-----------x|
G|------------0--x---0-----------x|
D|---------------x---------------x|
A|---------------x---------------x|
E|-----------3---x---3-----------x|

        its time to try,
e|---------------x---3-----------x|
B|---------------x---3-----------x|
G|------------0--x---0-----------x|
D|---------------x---------------x|
A|---------------x---------------x|
E|-----------2---x---2-----------x|

            anything to be     with you,
e|---------------x--------3------x---------------x--3------------x|
B|---------------x--------3------x---------------x--3------------x|
G|------------0--x--------0------x---------------x--0------------x|
D|---------------x---------------x-----2---------x--2------------x|
A|---------------x---------------x---3-----------x--3------------x|
E|-----------0---x--------0------x---------------x---------------x|

     all my          life i've          waited,
e|---------------x---------------x---------------x|
B|----0----------x-----8---------x--------4------x|
G|----0----------x-----7---------x--------3------x|
D|----7----------x-----9---------x--------5------x|
A|---5-----------x---------------x---------------x|
E|---------------x---------------x---------------x|

      this is
e|---3-3-3-3-|
B|---4-4-4-4-|
G|---3-3-3-3-|
D|---5-5-5-5-|
A|---3-3-3-3-|
E|---3-3-3-3-|

(Bridge)
  true      I know when I go, Ill be on my way      to you
e|----x---x---x--------x---x---x--------x---x---x--0-x-3---3-3----x|
B|--5-x-7-x-8-x-----5--x-7-x-8-x------5-x-7-x-8-x--0-x-3---3-3----x|
G|----x---x---x--------x---x---x--------x---x---x----x-----0-0----x|
D|----x---x---x--------x---x---x--------x---x---x----x------------x|
A|-7--x-7-x-7-x-----6--x-6-x-6-x-----5--x-5-x-5-x-4--x-4----------x|
E|----x---x---x--------x---x---x--------x---x---x----x------------x|

C9      G5       C9------------------------------------------->
The way that its true, way that its true, the way that its true

(chorus) 
(strumming)
I've waited all my life
e|-------------------3-----------x|
B|-------------------3-----------x|
G|------------0------0-----------x|
D|-------------------------------x|
A|-------------------------------x|
E|-----------3-------3-----------x|

            to cross this line
e|-------------------3-----------x|
B|-------------------3-----------x|
G|------------0------0-----------x|
D|-------------------------------x|
A|-------------------------------x|
E|-----------2-------2-----------x|

            do the only thing thats true.
e|------------------------3-------------------------3------------x|
B|------------------------3-------------------------3------------x|
G|------------0-----------0-------------------------0------------x|
D|-------------------------------------2------------2------------x|
A|-----------------------------------3--------------3------------x|
E|-----------0------------0--------------------------------------x|

            so i will not hide,
e|-------------------3-----------x|
B|-------------------3-----------x|
G|------------0------0-----------x|
D|-------------------------------x|
A|-------------------------------x|
E|-----------3-------3-----------x|

        its time to try,
e|-------------------3-----------x|
B|-------------------3-----------x|
G|------------0------0-----------x|
D|-------------------------------x|
A|-------------------------------x|
E|-----------2-------2-----------x|

            anything to be     with you,
e|------------------------3-------------------------3------------x|
B|------------------------3-------------------------3------------x|
G|------------0-----------0-------------------------0------------x|
D|-------------------------------------2------------2------------x|
A|-----------------------------------3--------------3------------x|
E|-----------0------------0--------------------------------------x|

     all my          life i've          waited,
e|-----------------------------------------------x|
B|----0----------------8-------------------------x|
G|----0----------------7-------------------------x|
D|----7----------------9-------------------------x|
A|---5-------------------------------------------x|
E|-----------------------------------------------x|

                this is true.
e|------------3--------------3|
B|-----4---------------------3|
G|-------3-------------------0|
D|----------5----------------0|
A|---------------------------0|
E|---------------------------3|
Comments