Ryan Cabrera - True Chords & Tabs

 

True Chords & Tabs

Ryan Cabrera Chords & Tabs

Version: 3 Type: Tab 0 ratings
1 star 2 stars 3 stars 4 stars 5 stars
comments

True Tab

   
-------------------------------------------------------------------------------
			     true - ryan cabrera
-------------------------------------------------------------------------------
Tabbed by:Scott Tsai
Email:

Tuning:dropped half step

Intro with the piano

e|-----0--x---------x-----------x---------------------------------------------------|
B|--------x---3-----x--1----1---x---0-----------------------------------------------|
G|--5-----x---4--4--x--0h2------x---0-----------------------------------------------|
D|--0-----x---0-----x--0--------x---0-----------------------------------------------|
A|--------x---------x-----------x---------------------------------------------------|
E|--3-----x---3-----x--3--------x---3-----------------------------------------------|

when he starts singing
e|-------x---------x---------x----------------------------------------------------------|
B|-------x---------x---------x----------------------------------------------------------|
G|----5--x---4--4--x---0h2-2-x--4-------------------------------------------------------|
D|----0--x---0-----x---0-----x--0-------------------------------------------------------|
A|-------x---------x---------x----------------------------------------------------------|
E|--3----x---3-----x-0-3-----x--3-------------------------------------------------------|

section following
e|---------x-----0----x----------------|
B|---------x-------0--x----------------|
G|--0h2-2--x--0-------x----------------|
D|--0------x--2-------x-----repeat 2x--|
A|--2------x----------x----------------|
E|---------x--0-------x----------------|
[ Tab from: http://www.guitartabs.cc/tabs/r/ryan_cabrera/true_tab_ver_3.html ]
when he sings "im weak its true"
e|--------x---0-----x---------x----------x----------x---------|
B|--3-----x---3--3--x---7-----x---7------x----8-----x---8-----|
G|--0-----x---0-----x---0-----x---0------x----0-----x---0-----|
D|--5--5--x---------x---7--7--x------7---x----9--9--x---9--9--|
A|--3-----x---3-----x---5-----x---5------x--0-7-----x---7-----|
E|--------x---------x---------x----------x----------x---------|

then play in reverse order

chorus

e|-------3------------3----------3---------3------------------------------------------|
B|-------3------------3--------3-3---------3------------------------------------------|
G|-------0------------2----------0---------0------------------------------------------|
D|----0------------0--------------------2---------------------------------------------|
A|------------------------------------3----3------------------------------------------|
E|--3----3-------2----2---0-0----0----------------------------------------------------|

e|-------------------3-------------------------------------------------------------|
B|-----0----8--8-----4-------------------------------------------------------------|
G|-----0----7--------3-------------------------------------------------------------|
D|-----8----9----------------------------------------------------------------------|
A|---6------7--------3-------------------------------------------------------------|
E|---------------------------------------------------------------------------------|

I know when i go ill be on my way to you ( u figure out picking pattern)
e|------------3----------x--x--x------------------------------------------------------|
B|--8--8--8---3----------0--1--3------------------------------------------------------|
G|--9--9--9---0----------0--0--0------------------------------------------------------|
D|--9--9--9---x----------2--2--2------------------------------------------------------|
A|--7--6--5---4----------3--3--3------------------------------------------------------|
E|------------5----------x--x--x------------------------------------------------------|

then strum chorus

this is definitely the best tab on this site


| /  slide up
| \  slide down
| h  hammer-on
| p  pull-off
| ~  vibrato
| +  harmonic
| x  Mute note
===============================================================================
Comments