Ryan Cabrera - Shine On Chords & Tabs

 

Shine On Chords & Tabs

Ryan Cabrera Chords & Tabs

Version: 1 Type: Tab 0 ratings
1 star 2 stars 3 stars 4 stars 5 stars
comments

Shine On Tab

Ryan Cabrer - "Shine On"

Intro. 2x

E : ---------------------------------------------------------4---------6-----|
B : ---------------------------2---1-----------------------------------------|
G : --------3---1------------------------------------------------------------|
D : ------------------3---1------------------3---1---------------------------|
A : ---1-----------------------------------4----------4---------3------------|
E : ------------------------------------2------------------------------------|

E : ---------------------------------------------------------6---------5-----|
B : ---------------------------2---1-----------------------------------------|
G : --------3---1------------------------------------------------------------|
D : ------------------3---1------------------3---1---------------------------|
A : ---1-----------------------------------4----------4---------5------------|
E : ------------------------------------2------------------------------------|

Prechorus
[ Tab from: http://www.guitartabs.cc/tabs/r/ryan_cabrera/shine_on_tab.html ]
E : ----6-------------5-------------4-------------2-------------4-----|
B : ----6-------------5-------------4-------------2-------------4-----|
G : ----7-------------6-------------5-------------3-------------5-----|
D : ----8-------------7-------------6-------------4-------------6-----|
A : ----8-------------7-------------6-------------4-------------6-----|
E : ----6-------------5-------------4-------------2-------------4-----|


E : ------------4--------------6--------------9--------------4---------|
B : ------------4--------------6--------------9--------------4---------|
G : ------------5--------------7--------------10-------------5---------|
D : ------------6--------------8--------------11-------------6---------|
A : ------------6--------------8--------------11-------------6---------|
E : ------------4--------------6--------------9--------------4---------|

Chours 4x

E : ------2------4------4------6------|
B : ------2------6------4------6------|
G : ------3------6------5------7------|
D : ------4------6------6------8------|
A : ------4------4------6------8------|
E : ------2------4------4------6------|

Bridge

E : ----1---------1---------2---------1---------4-----|
B : ----2---------1---------2---------1---------4-----|
G : ----3---------2---------3---------2---------5-----|
D : ----3---------3---------4---------3---------6-----|
A : ----1---------3---------4---------3---------6-----|
E : ----1---------1---------2---------1---------4-----|

Outtro.

E : -----1------|
B : -----2------|
G : -----3------|
D : -----3------|
A : -----1------|
E : -----1------|

This is my first tab, and when i say it i mean it. i just made it because noone else had 
there will soon be better versions out, hoefully..
thanks, scott7373
Comments