Ryan Cabrera - Shes Chords & Tabs

 

Shes Chords & Tabs

Ryan Cabrera Chords & Tabs

Version: 2 Type: Tab 0 ratings
1 star 2 stars 3 stars 4 stars 5 stars
comments

Shes Tab

   
this isnt exactly right but u should be able 2 figure the rest out.
intro/verse-
e------------0----------|----------------2----------|------------0----------|
b--------------0--------|------------------3--------|--------------1--------|
g----------------0------|-----------2--------2------|-------0--------0------|
d------2-----------0----|---------0---0--------0----|-----2---2--------2----|
a----2---2--------------|-------0-------------------|---3-------------------|
e--0--------------------|---------------------------|-----------------------|

e--0----------0---|
b----1------------|
g------0---0------|
d--------2--------|
a-----------------|
e-----------------| play 5x
[ Tab from: http://www.guitartabs.cc/tabs/r/ryan_cabrera/shes_tab_ver_2.html ]
(Chorus)
Em         C     G       D
shes the only love ive known
Em         C      G        D
now shes gone away
Em        D               C             D
shes the light thats brought me to the edge
C        D
will i ever love again

(Verse)same as before


(Chorus)x1

(Bridge)
C       D                 Em
So just tell me what I should do
       D           C
I left everything for you
          D   Em
And I can hardly breathe
          D                   C              D
Because I know I lost you from my world, from my world
(Chorus x2)
Comments