Ryan Cabrera - Echo Park Chords & Tabs

 

Echo Park Chords & Tabs

Ryan Cabrera Chords & Tabs

Version: 2 Type: Tab

Echo Park Tab

Artist: Ryan Cabrera
Song: Echo Park
Tuning: 1/2 step down

CAPO on 3rd fret


INTRO:

e|--0----0----0---|
b|--0----0----0---|
G|--0----0----0---|
D|--0----0----0---|
A|--9----6----3---|
E|--x----x----x---|

VERSE:

e|--3----3--|
b|--3----3--|
G|--0----0--|
D|--2----0--|
A|--3----2--|
E|--x----3--|

PRE-CHORUS:
[ Tab from: http://www.guitartabs.cc/tabs/r/ryan_cabrera/echo_park_tab_ver_2.html ]
e|--0-----3-----3-----3-----2--|
b|--0-----3-----3-----3-----3--|
G|--0-----0-----0-----2-----2--|
D|--2-----2-----0-----0-----0--|
A|--2-----3-----2-----0-----0--|
E|--0-----x-----3-----x-----x--|

CHORUS:

e|--0-----3-----3-----2--|
b|--1-----3-----0-----3--|
G|--2-----0-----0-----2--|
D|--2-----2-----0-----0--|
A|--0-----3-----2-----0--|
E|--0-----x-----3-----x--|

BRIDGE:

e|--0-----0-----0-----3--|
b|--0-----0-----0-----4--|
G|--0-----0-----0-----5--|
D|--0-----0-----0-----5--|
A|--9-----6-----3-----3--|
E|--x-----x-----x-----x--|