Ryan Bingham - Hard Worn Trail Chords & Tabs

 

Ryan Bingham Chords & Tabs

Version: 1 Type: Tab 0 ratings
1 star 2 stars 3 stars 4 stars 5 stars
comments

Hard Worn Trail Tab

Hard Worn Trail - Ryan Bingham and the Dead Horses
Junky Star
DADGAD Tuning

The two main parts are here, just listen to the song of the changes and this 
should work for ya. Enjoy!

|----7-------5-------8---------7-------3-------2--------0----------0------|
|---8--8--/7---7--/10--10----/8--8---/5--5--/3---3---0----0----0--0--0----|
|-------------------------------------------------------------------------|
|-------------------------------------------------------------------------|
|-------------------------------------------------------------------------|
|--0----0--------0---------0--------0------0----------0-----0----0-----0--|


|--0------------|--0-----10h12-12---------|
|--0------------|--0----------------------|
|--2------------|--2----------------------|
|--0--/5--/3----|--0----------------------|
|--0--/5--/3----|--0----------------------|
|--0--/5--/3----|--0----------------------|

Out along the hardest trail
Set your mind at ease
Laid the sun down upon the hill
Fell into the sea
[ Tab from: http://www.guitartabs.cc/tabs/r/ryan_bingham/hard_worn_trail_tab.html ]
Left your heart on that hard worn trail
Left your family on that hard worn trail
Left four dead on that hard worn trail
Went to hell on that hard worn trail

Days were lost and remembered when
You shed your eyes of fear
Awareness of a debt repaid
Soon to disappear

Played out till empty on that hard worn trail
Crazy in your eyes on that hard worn trail
Tossin and a turnin on that hard worn trail
Lossin your damn mind on that hard worn trail

Passin sky brings forever miles
Somehow closer to you
Feelin age is all unclear
Something you canít choose

Cuase mile after mile on that hard worn trail
Blood, sweat and trial on that hard worn trail
Dance in the fire on that hard worn trail
Sweatin out them demons on that hard worn trail
Kickin and a screamin down that hard worn trail
Beggin for some mercy on that hard worn trail
Sang of forgiven on that hard worn trail
Lost in a vision on that hard worn trail
Caust time was a tickin on that hard worn trail
Your heart beat a rhythm on that hard worn trail
You was a gettin down that hard worn trail
Hard worn trail x3
Comments