Ryan Adams - Oh My Sweet Carolina Chords & Tabs

 

Oh My Sweet Carolina Chords & Tabs

Ryan Adams Chords & Tabs

Version: 1 Type: Tab 0 ratings
1 star 2 stars 3 stars 4 stars 5 stars
comments

Oh My Sweet Carolina Tab

   
Ryan is the most talented musician Alive!

This is the complete tab for probably the best song on Ryans 3rd
album, "Heartbreaker". It is almost 100% accurate, any comments
or suggestions are welcome. ENJOY!! nthe tabs, the correct note
appears directly below the place or word it should be played at.
btw, Hi to Sandy T

Main Riff:

e|-------------------------------|
B|-----------3-------3-----------|
G|--------2--2h4-----2-----------|
D|--0-2h4--------2h4---4p2--2p0--|
A|--0----------------------------|
E|-------------------------------|


Main riff x 2

Verse 1:

 |Well I went down to Houston and I stopped in San Antone

e|---------------------------------------------------------|
B|---------------------------------------------3----------3|
G|----------------------------------0---------------------2|
D|-----0---------------------------------------------0-----|
A|---------------------------------------------------------|
E|---------------------------------------------------------|

 |I passed up the station for the bus

e|-----------------------------------------------------|
B|----------3-----------------------------3------------|
G|----------2-----------------------------2--2---------|
D|---0--------------------------------0h2--------------|
A|------------------------------------0----------------|
E|-----------------------------------------------------|

 |Trying to find me something but I wasn't sure just what

e|------------------------------------------------------|
B|------------3-----------------------------------------|
G|4-----------------------------------------------------|
D|--------------------0------------------------------0--|
A|----------------------------4-----2------0------------|
E|------------------------------------------------------|

 |Man I ended up with pockets full of dust

e|--------------------------------------------------|
B|----------------------------------------------3---|
G|------------------------------------------------2-|
D|------0-----------------------------0-----2h4-----|
A|--------------------0-----------------------------|
E|--------------------------------------------------|

Verse 2:

 |So I went on to Cleveland and I ended up insane
[ Tab from: http://www.guitartabs.cc/tabs/r/ryan_adams/oh_my_sweet_carolina_tab.html ]
e|-----------------------------------------------|
B|----------3---------------3-----0--------------|
G|---2----------------------------0----------2---|
D|---0---------------------------------------0---|
A|-----------------------------------------------|
E|-----------------------------------------------|

 |Bought a borrowed suit and learned to dance

e|-----------------------------------------------------|
B|-----------------------------------------------------|
G|-------------------------------------------------2---|
D|0-------------------------------------------0h2----2-|
A|--------------------------------------0--------------|
E|-----------------------------------------------------|

 |  I was spendin' money like the way it likes to rain

e|3--------------------------------------------------|
B|0--------3-----------------------------------------|
G|0----------------2------------------------------0--|
D|-----------------0---------------------------------|
A|-----------------------4--------2------0-----------|
E|---------------------------------------------------|

 |Man I ended up with pockets full of cane

e|-------------------------------------------------|
B|------3-----------------------------3--------3---|
G|------2-----------------------------2----------2-|
D|------0-----------------------------0----2h4-----|
A|--------------------0----------------------------|
E|-------------------------------------------------|

Chorus

     Bm    G       D     Bm        G          A
Oh my  swe-eet Carolina,   what compels me to go

     Bm    G        D               Bm      A        G
Oh my  swe-eet disposition, may you one day carry me home


Play main riff x 2 Here

Verse 3:

        D                         G                  D
I ain't never been to Vegas but I gambled all my life

                                             A
Building newsprint boats I raced in sewer mains

G                 D               Bm     A         G
Trying to find me something but I wasn't sure just what

      D                 A                 D
Funny how they say that some things never change

(repeat chorus)

Verse 4:
Up here in the city, it feels like things are closin' in
The sunset's just my light bulb burning out 
I miss Kentucky and I miss my family
All the sweetest winds they blow across the south

(repeat chorus)

During the verses 3 and 4, add small hammer on such as 

D|--2h4--|

between some chords to make it sound better.

I thinks this tab is 100% ok, but if there are any suggestions or corrections then let 
me know

Daniel G
Comments