Rx Bandits - Wrong With Me Chords & Tabs

 

Wrong With Me Chords & Tabs

Rx Bandits Chords & Tabs

Version: 3 Type: Bass Tab 0 ratings
1 star 2 stars 3 stars 4 stars 5 stars
comments

Wrong With Me Bass Tab

Song:Wrong with me
Band:RX Bandits
Album:Halfway Between Here and there
By:FutureShooter
E-mail:Futureshooter69@hotmail.com


Intro:
G:---------------------------|
D:---------------------------|
A:3-3-----3-3----------------|  x2
E:----3-3-------1-1--3-3-----|

Verse:
G:----------------------------------------|
D:-----------------------------7-7-7-7-5--|
A:3-3-7-7--------------3-3-7-7------------|  x6
E:--------5-5-5-5-3-3---------------------|
[ Tab from: http://www.guitartabs.cc/tabs/r/rx_bandits/wrong_with_me_btab_ver_3.html ]
Bridge:
G:----------------------------------------------|
D:----------------------------------------------|
A:----------------------------------------------|   x1
E:1-1-3-3-5--5-5-5--5-5-5--5-5--5--3--1-1--3----|

Courus:
G:----------------------------|
D:----------------------------|
A:3--3-3-7--7-7---------------|   x4
E:--------------5--5-5-3--3-3-|

Verse: x6
Bridge: x1
Courus: x4
Bridge: x1
Courus: x8
Intro: x2


Questions, comments, corrections or advice, e-mail me at address at the top of the page. 

Thrid try are a kick ass band who arn't signed to a lable listen to the music first by 
searching for them on napster, Viva la resistance!
Comments