Rx Bandits - Who Wouldve Thought Chords & Tabs

 

Who Wouldve Thought Chords & Tabs

Rx Bandits Chords & Tabs

Version: 2 Type: Tab 0 ratings
1 star 2 stars 3 stars 4 stars 5 stars
comments

Who Wouldve Thought Tab

Rx Bandits.
Who Would've Thought.

Intro:

e -------------------------------------------------------------------------|
B -------------------------------------------------------------------------|
G --1111---111111----7--777----1414--141414----13--131313------------------|
D ---x-x-----x-x-x---x--xxx-----x-x---x-x-x----x----x-x-x------------------|
A --9--9----9-9-9----5--555----1212--121212----11--111111------------------|
E  ------------------------------------------------------------------------|

Verse 1 and 2:   with ska upstrokes.

e  ---x-2-x-2-x-2-x-2-x-2-x-2-x-2-x-2-x-2-x-2-x-2-x-2----x-2-x-2----x-1-x-1----------------------------|
B  ---x-2-x-2-x-2-x-2-x-2-x-2-x-2-x-2-x-2-x-2-x-2-x-2----x-3-x-3----x-2-x-2----------------------------|
G  ---x-2-x-2-x-2-x-2-x-2-x-2-x-2-x-2-x-2-x-2-x-2-x-2----x-4-x-4----x-1-x-1----------------------------|
D  ----------------------------------------------------------------------------------------------------|
A  ----------------------------------------------------------------------------------------------------|
E  ----------------------------------------------------------------------------------------------------|

e  ---x-2-x-2-----x-2-x-2-----x-5-x-5----x-4-x-4-----------------------------------------|
B  ---x-2-x-2-----x-3-x-3-----x-5-x-5----x-5-x-5-----------------------------------------|
G  ---x-2-x-2-----x-2-x-2-----x-6-x-6----x-4-x-4-----------------------------------------|
D  --------------------------------------------------------------------------------------|
A  --------------------------------------------------------------------------------------|
E  --------------------------------------------------------------------------------------|

Pre-Chorus:

E  -----------------------------------------|
B  -----------------------------------------|
G  -----------------------------------------|
D  ----------4------0--0--------------------|
A  --------------4----------4--0------------|
E  ---2--2----------------------------------|

Part 2:
[ Tab from: http://www.guitartabs.cc/tabs/r/rx_bandits/who_wouldve_thought_tab_ver_2.html ]
e  ------------------------------------------------------------------|
B  ------------------------------------------------------------------|
G  ---44444444----66666666----77777777----9999999999999999-----------|
D  ---44444444----66666666----77777777----9999999999999999-----------|
A  ---22222222----44444444----55555555----7777777777777777-----------|
E  ------------------------------------------------------------------|

Chorus:

e  ---------------------------------------------------|
B  ---------------------------------------------------|
G  ----------9-------11-------7-----------------------|
D  ---7------9-------11-------7-----------------------|
A  ---7------7-------9--------5-----------------------|
E  ---5-----------------------------------------------|

e  -----------------------------------------------------------------------|
B  -----------------------------------------------------------------------|
G  -----------9------1111111111111111-----99999999----7777777777777777----|
D  ----7------9------1111111111111111-----99999999----7777777777777777----|
A  ----7------7-------9-9-9-9-9-9-9-------77777777----5555555555555555----|
E  ----5------------------------------------------------------------------|

Bridge:

E  ------------------|
B  ------------------|
G  ------------------|
D  -----44-----------|
A  -----44-----------|
E  -----22-----------|

E  ---------------------------------------------------------------|
B  ---------------------------------------------------------------|
G  -----------------------------777-7-7-7-----6666666------------|
D  ----442442442442-----777-7-7-7-----6666666-------------|
A  ----442442442442-----555-5-5-5-----4444444-------------|
E  ----220220220220----------------------------------------|

e----------------------------------------------------------|
B----------------------------------------------------------|
G---2p12p12p12p16p46p46p46p411p911p911p911p9---|
D----------------------------------------------------------|
A----------------------------------------------------------|
E----------------------------------------------------------|

E  ------------------------------------------------------|
B  ------------------------------------------------------|
G  ---14p1314p1314p1314-------------------------------|
D  ------------------------------------------------------|
A  ------------------------------------------------------|
E  ------------------------------------------------------|


Return to Pre-Chorus Part 2.
Comments