Rx Bandits - Status Chords & Tabs

 

Status Chords & Tabs

Rx Bandits Chords & Tabs

Version: 1 Type: Tab 0 ratings
1 star 2 stars 3 stars 4 stars 5 stars
comments

Status Tab

   
Song:Status
Band:Rx Bandits
Album:Progress

/ or \ = slide
x = mute
The chords are written below the tab for a shortcut if you want.

e:-4/5--5--5--5--x--1/2--2--2--2--x--4/5--5--5--5--x--3/4--4--4--4--x-|
B:-4/5--5--5--5--x--2/3--3--3--3--x--4/5--5--5--5--x--4/5--5--5--5--x-|
G:----------------------------------------------------3/4--4--4--4--x-|
D:--------------------------------------------------------------------|
A:--------------------------------------------------------------------|
E:--------------------------------------------------------------------|
          A                D                A               E

e:------------------------------------------------|
B:---12--10---9--10--xx---8/9--9--9--9--9---------|
G:---9----9---9---9--xx---8/9--9--9--9--9-----o---|
D:---11--11--11--11--xx---8/9--9--9--9--9-----o---|
A:------------------------------------------------|
E:------------------------------------------------|
          F#m                     E

e:-------------------------------------------------|
B:--x6/7--7--7--7/9--9--9---10--10--10--10---------|
G:--x6/7--7--7--7/9--9--9----9---9---9---9-----o---|
D:--x6/7--7--7--7/9--9--9---11--11--11--11-----o---|
A:-------------------------------------------------|
E:-------------------------------------------------|
          D          E             A

e:-----------------------------------------7-----7---|
B:--x6/7--7--7--7/9--9--9---10----9---7----7-----9---|
G:--x6/7--7--7--7/9--9--9----9----9---7----8-----7---|
D:--x6/7--7--7--7/9--9--9---11----9---7----7-----9---|
A:-----------------------------------------9-----7---|
E:-----------------------------------------7---------|
          D         E        A    E   D   B7    E7

e:----------------------------------------------------|
B:----------------------------------------------------|
G:------------------7-7-7-7-7-7-7-7-9-9-9-9-9-9-9-9---|
D:--7-7-----4-4-----7-7-7-7-7-7-7-7-9-9-9-9-9-9-9-9---|
A:--7-7-----4-4-----5-5-5-5-5-5-5-5-7-7-7-7-7-7-7-7---|
E:--5-5-----2-2---------------------------------------|
     A      F#m            D               E


[ Tab from: http://www.guitartabs.cc/tabs/r/rx_bandits/status_tab.html ]
Chorus:
e:--------------------------------------------------------------|                     
B:--------------------------------------------------------------|
G-------------------------------7-7----7-7----7-7-7-7-9-9-9-9---|
D:--7-7----7-7----2-2----2-2----7-7----7-7----7-7-7-7-9-9-9-9---|
A:--7-7----7-7----2-2----2-2----9-9----9-9----5-5-5-5-7-7-7-7---|
E:--5-5----5-5----0-0----0-0------------------------------------|
         A             E            F#m          D       E
     
e:------------------------------------------------------------------|
B:------------------------------------------------------------------|
G:----------------------------4-6-7-7-7-7-7-7-7-7-9-9-9-9-9-9-9-9---|
D:--7-7----7-7-6-6-4-4----4-4-4-6-7-7-7-7-7-7-7-7-9-9-9-9-9-9-9-9---|
A:--7-7----7-7-6-6-4-4----4-4-2-4-5-5-5-5-5-5-5-5-7-7-7-7-7-7-7-7---|
E:--5-5----5-5-4-4-2-2----2-2---------------------------------------|
        A   A  G#m F#m    F#m BmC#m      D              E


At this point you go back to the beginning and play it all over again.  Then…
Play this part 3X. You play it a 4th time and just drop the last 3 notes.   
e:---------------------------------------|
B:---------------------------------------|
G:------11-------9-------------------o---|
D:---------11------------------------o---|
A:--9-9--------9------12-11--------------|
E:--------------------------12-----------|

The 2nd time you play this end by holding the D and A chords for 8 beats each instead of 4.
e:-------------------------------------------------------------------------|
B:--10-10-xxx--9----10-10-xxx--9----10-10-xxx--9----7-7-7-7-9-9-9-9--------|
G:--11-11-xxx--9----11-11-xxx--9----11-11-xxx--9----7-7-7-7-9-9-9-9----o---|
D:--11-11-xxx--9----11-11-xxx--9----11-11-xxx--9----7-7-7-7-9-9-9-9----o---|
A:---9--9-xxx--7-----9--9-xxx--7-----9--9-xxx--7----5-5-5-5-7-7-7-7--------|
E:-------------------------------------------------------------------------|
     F#m       E     F#m       E     F#m       E        D      E

Play Chorus once more and then end on…      e:-------|
                                            B:-------|
                                            G:-------|
                                            D:---4---|
                                            A:---4---|
                                            E:---2---|
                                                F#m
Comments