Rx Bandits - High Skool Chords & Tabs

 

High Skool Chords & Tabs

Rx Bandits Chords & Tabs

Version: 1 Type: Tab 0 ratings
1 star 2 stars 3 stars 4 stars 5 stars
comments

High Skool Tab

   
Rx Bandits - High Skool
www.rxbandits.com

Intro:

   (em)                       (G)
e|------------------------------------------------|
B|-----------------------------------13p12p10-----|
G|-----------14p13p12----12------12-----------12--|
D|----14--------------12--------------------------|
A|-------14-------------------10------------------|
E|-12---------------------------------------------|

   (D)                    (B)
e|----------------10-----------------7--|
B|-------------10----10------------7----|
G|-----11--/11---------------8--/8------|
D|-/12--------------------/9------------|(repeat)
A|--------------------------------------|
E|--------------------------------------|


Chords:
These are used throughout a majority of the song (verse/chorus).

   (em)    (G)     (D)    (B)
e|--7-7---10-10---10-10---7-7--|
B|--8-8---12-12---10-10---7-7--|
G|--9-9---12-12---11-11---8-8--|
D|--9-9---12-12---12-12---9-9--|
A|--7-7---10-10---12-12---9-9--|
E|----------------10-10---7-7--|
[ Tab from: http://www.guitartabs.cc/tabs/r/rx_bandits/high_skool_tab.html ]
This is played slow and mellow four times with the horns,
then just before the main verse we've got...

e|-----------------------------------------|
B|----------------12-12-10-10-8-8----------|
G|------11-11-9-9-----------------11-11-9--|
D|--9-9------------------------------------|
A|-----------------------------------------|
E|-----------------------------------------|

Launching into the bulk of the song, it's the same chords as above,
just played fast with a ska beat.  Listen to the song, it's pretty
easy to figure out.

Solo:
e|-------------------------------------------------------------------------|
B|-------------------------------------------------------------------------|
G|-----0---0h2h4-0---------------------------------------------------------|
D|-2-2---2---------2-------------------------------------------------------|
A|-------------------------2---3---5--------4---7p5p4-5-4--------6---9---6-|
E|---------------------3-3---3---3-----/5-5---5-------------/7-7---7---7---|

Play this a total of six times, then go back to the mellow chord beat of
the intro, then pick it back up where he sings "High schoooooooooooooool".

The vocals end on the e minor chord, then goes back into part of the intro,
finally ending with once through the chords.
Comments