Rx Bandits - Get Chords & Tabs

 

Get Chords & Tabs

Rx Bandits Chords & Tabs

Version: 1 Type: Tab 0 ratings
1 star 2 stars 3 stars 4 stars 5 stars
comments

Get Tab

RX Bandits - Get
www.rxbandits.com
www.rx-bandits.com

pm - palm mute
*  - harmonic
\  - slide
h  - hammer on
p  - pull off
~  - let ring out

7x
7x  -  mute strings after strum
5x



INTRO  "No time to get what you wanted..."
e|-------------------------------------------------------------------------|
B|---------------------6-------------------6-6-6-6-6-6-6-6-----------------|
G|-3-----------5---3-3-3-3-3-3-3-3-5-5-5-5-3-3-3-3-3-3-3-3-3-3-3-3-5-5-5-5-|
D|-1---1-1-3-3-3-3---------1-1-1-1-3-3-3-3-----------------1-1-1-1-3-3-3-3-|
A|-------------------------------------------------------------------------|
E|-------------------------------------------------------------------------|
       pm.....   .....   .................................................
e|-------------------------------------------------------------------------|
B|-6-6-6-6-----------------------------------------------------------------|
G|-3-3-3-3-3-3-3-3-3-3-3-3-5-5-5-5-5-5-5-5---------------------------------|
D|---------1-1-1-1-1-1-1-1-3-3-3-3-3-3-3-3---------------------------------|
A|-------------------------------------------------------------------------|
E|-------------------------------------------------------------------------|
   pm.....................................


PRE VERSE (x4)
e|--------------------------------|
B|--------------------------------|
G|--------------------------------|
D|-------0----0----5-3-0-----0----|
A|-----1---3-------------1-3---1--|
E|--3-----------------------------|


VERSE  "There's a girl at the corner store..."  
(the rhythym is too hard to write out)
e|-10x-10x-10x-10x-10x--11--10x-10x-10x-10x-10x---8--10x-10x-10x-10x-10x-11|
B|-11x-11x-11x-11x-11x--11--11x-11x-11x-11x-11x--10--11x-11x-11x-11x-11x-11|
G|-12x-12x-12x-12x-12x--12--12x-12x-12x-12x-12x--11--12x-12x-12x-12x-12x-12|
D|-------------------------------------------------------------------------|
A|-------------------------------------------------------------------------|
E|-------------------------------------------------------------------------|

e|--9x---9x---9x---8x---8x---8x--------------------------------------------|
B|-11x--11x--11x--10x--10x--10x--------------------------------------------|
G|-12x--12x--12x--11x--11x--11x--------------------------------------------|
D|-------------------------------------------------------------------------|
A|-------------------------------------------------------------------------|
E|-------------------------------------------------------------------------|

[ Tab from: http://www.guitartabs.cc/tabs/r/rx_bandits/get_tab.html ]
PRE CHORUS  "Baby doll, well now can't you see..."
e|-------------------------------------------------------------------------|
B|-3----3-------------------------3----3---------------------3----3--------|
G|----0---3----------0-3-2-----------0---3----------0-3-2~------0---3------|
D|-----------3x----1--------0x--------------3x----1--------------------3x--|
A|-------------------------------------------------------------------------|
E|-------------------------------------------------------------------------|

e|------------------------------------------------------------------------|
B|------------------------------------------------------------------------|
G|---0-3-2---------8~------------7~---------------------------------------|
D|-1--------0x-----8~------------7~---------------------------------------|
A|-----------------6~------------5~---------------------------------------|
E|------------------------------------------------------------------------|


CHORUS  "No time to get what you wanted..."
e|-------------------------------------------------------------------------|
B|-------------------------------------------------------------------------|
G|-8---10-10---------------8-8---10-10-------------------8---10-10---------|
D|-8---10-10---8-8---5-5---8-8---10-10---8-8-8-8-8-8-8-8-8---10-10---8-8---|
A|-6----8--8---8-8---5-5---6-6----8--8---8-8-8-8-8-8-8-8-6----8--8---8-8---|
E|-------------6-6---3-3-----------------6-6-6-6-6-6-6-6-------------6-6---|

e|-------------------------------------------------------------------------|
B|-------------------------------------------------------------------------|
G|-------------------------------------------------------------------------|
D|-5-5---4-4-4-4-4-4-4-4-2-2-2-2-2-2-2-2x----------------------------------|
A|-5-5---4-4-4-4-4-4-4-4-2-2-2-2-2-2-2-2x----------------------------------|
E|-3-3---2-2-2-2-2-2-2-2-1-1-1-1-1-1-1-1x----------------------------------|


BRIDGE
e|----------------|
B|----------------|
G|----------------|
D|-------0----0x--|
A|-----1---3------|
E|--3-------------|


REPEAT PRE VERSE
REPEAT VERSE
REPEAT PRE CHORUS
REPEAT CHORUS


INTERLUDE
e|-6---6---9----6---6---9-----6---6---9----8-8-8-8-8-8-8-8-8-8-8-8-8-8-8-8-|
B|-8---8---8----8---8---8-----8---8---8----7-7-7-7-7-7-7-7-7-7-7-7-7-7-7-7-|
G|(7)-(7)-(6)--(7)-(7)-(6)---(7)-(7)-(6)---7-7-7-7-7-7-7-7-7-7-7-7-7-7-7-7-|
D|-------------------------------------------------------------------------|
A|-------------------------------------------------------------------------|
E|-------------------------------------------------------------------------|

REPEAT INTRO (x2)
REPEAT CHORUS (x2)
REPEAT BRIDGE
Comments