Ruts - Babylons Burning Chords & Tabs

 

Babylons Burning Chords & Tabs

Ruts Chords & Tabs

Version: 1 Type: Bass Tab 0 ratings
1 star 2 stars 3 stars 4 stars 5 stars
comments

Babylons Burning Bass Tab

   
"Babylons Burning"
================

The Ruts

(From "The Crack" 1979, and live on the "Grin And Bear It" LP, 1980)


    Basic Riff.....

G-|-------------------------------------|-------------------------------------|
D-|-------------0-0-2-2-3-3-2-2---------|-------------0-0-2-2-----2-2---------|
A-|-0-0-2-2-3-3-----------------3-3-----|-0-0-2-2-3-3---------3-3-----0-0-----|
E-|-------------------------------------|-------------------------------------|
    A A B B C C D D E E F F E E C C       A A B B C C D D E E C C E E C C     


[ Tab from: http://www.guitartabs.cc/tabs/r/ruts/babylons_burning_btab.html ]
    Chorus.....
                                                      
G-|-------------------------------------|-------------------------------------|
D-|-0-------0-0-0-------3---------------|-------------------------2-----------|
A-|-------------------------------------|-0-0-0---0---0---0-0-0-------3-------|
E-|-------------------------------------|-------------------------------------|

                                                                                G-|-------------------------------------|-------------------------------------|
D-|-0-------0-0-0-------3---------------|-------------------------2-----------|
A-|-------------------------------------|-0-0-0---0---0---0-0-0-------3-------|
E-|-------------------------------------|-------------------------------------|

                                                                                G-|-------------------------------------|-------------------------------------|
D-|-------------------------0-----------|---------0-0-0-0-2-2-2-2-2-----------|
A-|-0-0-0-0-2-2-2-2-3-3-3-3-------------|-3-3-3-3-----------------------------|
E-|-------------------------------------|-------------------------------------|



(All tabbed by ear - may well be full of mistakes - and probably missing a
few flourishes, turn-arounds and the like. Any corrections, additions of
the guitar part, other Ruts stuff, etc - please e-mail me .....
tobyb@post.almac.co.uk )

Cheers!

Toby Branfoot                                    -=*   
tobyb@post.almac.co.uk   *=-

Comments