Rustic Overtones - Man Without A Mouth Chords & Tabs

 

Man Without A Mouth Chords & Tabs

Rustic Overtones Chords & Tabs

Version: 1 Type: Tab 0 ratings
1 star 2 stars 3 stars 4 stars 5 stars
comments

Man Without A Mouth Tab

Verse:
"In the morning sounds the alarm..."
e----------
b----------
g--3----3--
d--4----4--
a--4----4--
E--2----2--

"Is it a warning of all the things to come..."
e----------
b----------
g--4----4--
d--5----5--
a--5----5--
E--3----3--

Repeat back and forth these two chords until the chorus

Chorus:
"When the man without a mouth let's his dog out..."
e----------     ---------
b----------     ---------
g----------     ---------
d--6-6-x---(4x) -5-5-x---(4x)
a--6-6-x---     -5-5-x---
E--4-4-x---     -3-3-x---
[ Tab from: http://www.guitartabs.cc/tabs/r/rustic_overtones/man_without_a_mouth_tab.html ]
e----------     ---------
b----------     ---------
g----------     ---------
d--6-6-x---(4x) -5-5-x---(4x)
a--6-6-x---     -5-5-x---
E--4-4-x---     -3-3-x---
"When the man without a mouth wants to speak, he's got things to say..."
e----------     ---------
b----------     ---------
g----------     ---------
d--4-4-x---(4x) -5-5-x---(4x)
a--4-4-x---     -5-5-x---
E--2-2-x---     -3-3-x---

Then back to the verse part

Bridge part, after 2nd chorus/Ending:
e------------------|-----------------
b------------------|-----------------
g------------------|-----------------
d--2-2-2-2-3-3-x-x-|-2-2-2-2-5-5-x-x-
a--2-2-2-2-3-3-x-x-|-2-2-2-2-5-5-x-x-
E--0-0-0-0-1-1-x-x-|-0-0-0-0-3-3-x-x-
Comments