Rusted Root - Lost In A Crowd Chords & Tabs

 

Lost In A Crowd Chords & Tabs

Rusted Root Chords & Tabs

Version: 2 Type: Tab 0 ratings
1 star 2 stars 3 stars 4 stars 5 stars
comments

Lost In A Crowd Tab

   
#----------------------------------PLEASE NOTE---------------------------------#
#This file is the author's own work and represents their interpretation of the #
#song. You may only use this file for private study, scholarship, or research. #
#------------------------------------------------------------------------------#
#


From jwjenks@ix.netcom.com Tue May 13 13:51:43 1997
Date: Sun, 04 May 1997 15:07:15 -0500
From: Jeff Jenks 
To: guitar@olga.net
Subject: Lost In A Crowd (Rusted Root)

TAB: "Lost In A Crowd" by Rusted Root

Album: WHEN I WOKE
Track #: 10
transcriber: jmk269@postoffice.ptd.net (joseph kozak)
Submitted By: Jeff Jenks(jwjenks@ix.netcom.com)


Lost In A Crowd

Intro:
   E                                        E6    E
e--------------------------------------------9----------------------------------|
B------------9----9-------------------9------9---------------9-----9------------|
G---------9---------9-------------9----------9------------9------------9--------|
D-------9-------------9---------9------------9----------9--------------9----9---|
A--7--7-------------------7---7--------------7----7---7-------------------------|
E-------------------------------------------------------------------------------|
                         D                        A                  E
e----------------------------------------------------------------5--------------|
B------------9----9----------------7-----7-----------------5-----5--------------|
G---------9----------9----------7----------7-------------6-------6----------9---|
D-------9---------------------7--------------7---------7---------7--------9-----|
A--7--7------------------5--5------------------------7-----------7---7--7-------|
E-------------------------------------------------5--------------5--------------|
                                    Verse:
                                     E
e-------------------------------------------------------------------------------|
B--9-----9--9-----------9-------9--------9--9----9-------------9---------9---9--|
G--------9--9-------9---9-------9------9-----------9-------9-----------9--------|
D-----------------9------------------9-------------------9-----------9----------|
A---------------7--------------------------------------7------------------------|
E-------------------------------------------------------------------------------|
                                    D                          A
e-------------------------------------------------------------------------------|
B--9--9------------9--------9--9--------7---7--------7---7---------5--5-----5---|
G--9--9--------9-------9----9--9------7------------------7---------6--6-----6---|
D------------9----------------------7----------------------------7--------------|
A----------7---------------------------------------------------7----------------|
E-------------------------------------------------------------------------------|
   E                                   (end of fig.1)
e-----------------------------------------------------|
B------9---9------9--9-------9--9-------9--9----------|
G------9---9------9--9-------9--9-------9--9----------|
D----9---------------------9--------------------------|
A--7---------------------7----------------------------|
E-----------------------------------------------------|

Chorus:(with fig.1) E
  D                    A              E
  lost,                lost,   now I'm found.
e--------------------------------------------------------------------------|
B-------------------7----------------------------------9---------9---------|
G----------7--7--7--7-----------------------------9----9-------9-----9-----|
D----------7--7--7--7----------------------------------------9-------------|
A--------------------------------------------------------------------------|
E--------------------------------------------------------------------------|

Bridge:
  F/C        E/B       C            G                        D
e-----------------------------------7--------7-------------------10----10-------|
B--10---------9--------8------------8----8---8---------------7----------7---7---|
G--10---------9--------9------------7----7---7-----x--x------7----------7---7---|
D--10---------9-------10---------------------------x--x------7----------7---7---|
A-------------------------------------------------------------------------------|
E-------------------------------------------------------------------------------|
   F                             C                            B
e------------------------------------8--------8---8--8--------------7---7-7---7-|
B--10---10------10---------------8------------8---8--8---x-x--7-----7---7-7---7-|
G--10---10--10--10---x-x-x-x-----9------------9---9--9---x-x--8-----8---8-8---8-|
D--10-------10--10---x-x-x-x----10-------10--10----------x-x--9-----9---9-9---9-|
A-------------------------------------------------------------------------------|
E-------------------------------------------------------------------------------|

e--7--7-7-7--7--7--7-7-7--------|
B--7--7-7-7--7--7--7-7-7--------|
G--8--8-8-8--8--8--8-8-8--------|
D--9--9-9-9--9--9--9-9-9--------|
A-------------------------------|
E-------------------------------|

Chorus:
   E                                          D               A
e-------------------------------------------------------------------------------|
B--9-----9-9----------9-9-------9-------------------7-----7----------5-----5----|
G--9-----9-9----------9-9-9-----9------9-9----------7--7--7----------6-----6----|
D--9------------------9-9-9------------9-9-------7-----7--7-------7-----7-------|
A-------------------------------------------------------------------------------|
E-------------------------------------------------------------------------------|
  E
e----------------------------------------|
B-----9-----9---------9---9------9-------|
G-----9-----9---------9---9------9-------|
D--9-----9-----9------9---9---9--9-------|
A----------------------------------------|
E----------------------------------------|

Solo:
   E

e--12---12------15-15-15-15-15--14--14----12\11--12------------15-15-15-15-15---|
B-------12--------------------------------12\11--12--12--12---------------------|
G-------------------------------------------------------------------------------|
D-------------------------------------------------------------------------------|
A-------------------------------------------------------------------------------|
E-------------------------------------------------------------------------------|
                     D                     A
E
                         1/2=========
e--14--14--12-------------------------------------------------------------------|
B--------------15---12--------15------------------------------------------------|
G------------------------14^------14^-----12-------------------12---------------|
D---------------------------------------------14--14\--/14--14-----14---/14--14-|
A-------------------------------------------------------------------------------|
E-------------------------------------------------------------------------------|

                                       1/2
1/2
e-------------------------------------------------------------------------------|
B-------------------------------------------------------------------------------|
G-------------------------------------------------------------------------------|
D--14\---/14---14-14-14-14--12--14\----7^-----5----------------5--5\----7^---5--|
A-----------------------------------------------7--7\----5--7-------------------|
E-------------------------------------------------------------------------------|
                                       D                        A
         1/4                                                   Full
e-------------------------------------------------------------------------------|
B-----------------------------------------------------8----8---10^-----8--------|
G-------------------------------------------7----7--9----9---------------9--9\--|
D--------------------5-----5--7--7/9---7--9---9---------------------------------|
A--7--7--8^----5--7-----7-------------------------------------------------------|
E-------------------------------------------------------------------------------|
    E                                C                     B

e------------------12-12-12--------------------------------------------------12-|
B--12---12\-----12-12-12-12---12----12-------12-12-12-12--12---12--12--12-12-12-|
G--12---12\-----12-12-12-12---12----12----12-12-12-12-12--12---12--12--12-12-12-|
D--12---12\-----12-12---------12----12-------12-12-12-12--12---12--12--12-12-12-|
A-------------------------------------------------------------------------------|
E-------------------------------------------------------------------------------|
               C                                       G

e--12-12-12---15---15--15-15-15-15-15-15-15-15-15-14--14-14-14-14-14--14-14-14--|
B--12-12-12---12---12--12-12-12-12-12-12-12-12-12-12--12-12-12-12-12--12-12-12--|
G--12-12-12---12---12--12-12-12-12-12-12-12-12-12-12--12-12-12-12-12--12-12-12--|
D--12-12-12---12---12-----------------------------------------------------------|
A-------------------------------------------------------------------------------|
E-------------------------------------------------------------------------------|
                          D                                       A

e--14-14-14-14-14-14-14----------15-15-15-15-15-15-15-15-15-15---14---14-14-14--|
B--12-12-12-12-12-12-12--15--15--15-15-15-15-15-15-15-15-15-15---14---14-14-14--|
G--12-12-12-12-12-12-12--12--12--12-12-12-12-12-12-12-12-12-12---12---12-12-12--|
D-------------------------------------------------------------------------------|
A-------------------------------------------------------------------------------|
E-------------------------------------------------------------------------------|
                    C                              B

e--14-14-14--------------12---12---14-14--12--12--14--------14---14-14--14---14-|
B--14-14-14-14-14--------12---12---14-14--12--12--14----14--14---14-14--14---14-|
G--12-12-12--------12----12---12---14-14--12--12--14----14--14---14-14--14---14-|
D------------------------12---12---14-14--12--12--------------------------------|
A-------------------------------------------------------------------------------|
E-------------------------------------------------------------------------------|

e--14-14-14--14--14--14-14-14------|
B--14-14-14--14--14--14-14-14------|
G--14-14-14--14--14--14-14-14------|
D----------------------------------|
A----------------------------------|
E----------------------------------|

Chorus:
 E
e-------------------------------------------------------------------------------|
B--9--9--9-9-9--9---9---9----9--9--9-9-9-9---9---9-9--9--9--9-9-9--9---9---9-9--|
G--9--9--9-9-9--9---9---9----9--9--9-9-9-9---9---9-9--9--9--9-9-9--9---9---9-9--|
D--9--9--9-9-9--9---9---9----9--9--9-9-9-9---9---9-9--9--9--9-9-9--9---9---9-9--|
A-------------------------------------------------------------------------------|
E-------------------------------------------------------------------------------|
                  D                A                  E
e---------------------------------------------------------------------9---9--9--|
B--9--9--9-9-9----7----7----7------5---5---5-----x----9---9---9---9---9---9--9--|
G--9--9--9-9-9----7----7----7------6---6---6-----x----9---9---9---9---9---9--9--|
D--9--9--9-9-9----7----7----7------7-------7-----x----9-------9---9---9---9--9--|
A-----------------5----5----5------7--------------------------------------------|
E----------------------------------5--------------------------------------------|

e--9--------9-----9-9-9-9-9-------|
B--9--------9-----9-9-9-9-9-------|
G--9----9---9-----9-9-9-9-9-------|
D--9----9---9-----9-9-9-9-9-------|
A---------------------------------|
E---------------------------------|

Interlude:

e--9----|
B--9----|
G--9----|
D--9----|
A-------|
E-------|

Outro Solo:
  E6                                                                   D
e--------9--9--x-x--9---9-9-9-9-9--9--9--9--9-9-9-9---9-9-9-9---------15-----15-|
B--------9--9--x-x--9---9-9-9-9-9--9--9--9--9-9-9-9---9-9-9-9--12--12-----12----|
G--------9--9--x-x--9---9-9-9-9-9--9--9--9--9-9-9-9---9-9-9-9-------------------|
D--------7--7--x-x--7---7-7-7-7-7--7--7--7--7-7-7-7---7-7-7-7-------------------|
A-------------------------------------------------------------------------------|
E-------------------------------------------------------------------------------|

Em
e--15-15---15-15-15-15-15-15-15--14-14-14-14-14--14-14-14-14-14-14-14-----------|
B--12-12---12-12-12-12-12-12-12--12-12-12-12-12--12-12-12-12-12-12-12---15--14--|
G-----------------------------------------------------------------------12--12--|
D-------------------------------------------------------------------------------|
A-------------------------------------------------------------------------------|
E-------------------------------------------------------------------------------|

e-------------------------------------------14-14-14-14-14-14-------------------|
B--15--15---14-14-15-14--12-12-14-14-14-14--14-14-14-14-14-14----------12--12---|
G--12--12---12-12-12-12--12-12-14-14-14-14--14-14-14-14-14-14---12-----12--12---|
D------------------------------------------------------------------12-----------|
A-------------------------------------------------------------------------------|
E-------------------------------------------------------------------------------|
                 1/4

e----------------14^----x-x-x---------------------------------------------------|
B--14--12-12-12--14^----x-x-x-----12--12-12-12-12-12-x-x----------12-12-12-12---|
G--14--12-12-12--14^----x-x-x--12-12--12-12-12-12-12-x-x--14-14---12-12-12-12---|
D------------------------------12-12--12-12-12-12-12-x-x--12-12---12-12-12-12---|
A-------------------------------------------------------------------------------|
E-------------------------------------------------------------------------------|
                   D
e---------------------------------------------------------------15-15-15-15----|
B-------12--------12-----14-14-14-------------------12--12--12--12-12-12-12----|
G--14---12--14----12--14-14-14-14-14--14-14--12-14--12--12--12--12-12-12-12----|
D--12---12--12----12--12-14-14-14-14--14-14--12-14-----------------------------|
A------------------------------------------------------------------------------|
E------------------------------------------------------------------------------|
                                                                   Em
e--15-15--15--15---17-17-17-17-17-17-15-15--15-15-15---------------15--14--15--|
B--12-12--12--12----0--0--0--0--0--0--0--0---0--0--0-12-12-12-12----0---0---0--|
G--12-12--12--12---14-14-14-14-14-14-14-14--14-14-14-12-12-12-12----0---0---0--|
D------------------------------------------------------------------------------|
A------------------------------------------------------------------------------|
E------------------------------------------------------------------------------|
                                                    1/2
[ Tab from: http://www.guitartabs.cc/tabs/r/rusted_root/lost_in_a_crowd_tab_ver_2.html ]
e--14-15-14-15-14------14--16--12-------------------12-------|
B---0--0--0--0--0--12--12--12--12--15--14--15--12---12-------|
G---0--0--0--0--0--12--12--12--12--12--12--12--12---14^------|
D------------------------------------------------------------|
A------------------------------------------------------------|
E------------------------------------------------------------|
Lost In A Crowd

Intro:
   E                                        E6    E
e--------------------------------------------9----------------------------------|
B------------9----9-------------------9------9---------------9-----9------------|
G---------9---------9-------------9----------9------------9------------9--------|
D-------9-------------9---------9------------9----------9--------------9----9---|
A--7--7-------------------7---7--------------7----7---7-------------------------|
E-------------------------------------------------------------------------------|
                         D                        A                  E
e----------------------------------------------------------------5--------------|
B------------9----9----------------7-----7-----------------5-----5--------------|
G---------9----------9----------7----------7-------------6-------6----------9---|
D-------9---------------------7--------------7---------7---------7--------9-----|
A--7--7------------------5--5------------------------7-----------7---7--7-------|
E-------------------------------------------------5--------------5--------------|
                                    Verse:
                                     E
e-------------------------------------------------------------------------------|
B--9-----9--9-----------9-------9--------9--9----9-------------9---------9---9--|
G--------9--9-------9---9-------9------9-----------9-------9-----------9--------|
D-----------------9------------------9-------------------9-----------9----------|
A---------------7--------------------------------------7------------------------|
E-------------------------------------------------------------------------------|
                                    D                          A
e-------------------------------------------------------------------------------|
B--9--9------------9--------9--9--------7---7--------7---7---------5--5-----5---|
G--9--9--------9-------9----9--9------7------------------7---------6--6-----6---|
D------------9----------------------7----------------------------7--------------|
A----------7---------------------------------------------------7----------------|
E-------------------------------------------------------------------------------|
   E                                   (end of fig.1)
e-----------------------------------------------------|
B------9---9------9--9-------9--9-------9--9----------|
G------9---9------9--9-------9--9-------9--9----------|
D----9---------------------9--------------------------|
A--7---------------------7----------------------------|
E-----------------------------------------------------|

Chorus:(with fig.1) E
  D                    A              E
  lost,                lost,   now I'm found.
e--------------------------------------------------------------------------|
B-------------------7----------------------------------9---------9---------|
G----------7--7--7--7-----------------------------9----9-------9-----9-----|
D----------7--7--7--7----------------------------------------9-------------|
A--------------------------------------------------------------------------|
E--------------------------------------------------------------------------|

Bridge:
  F/C        E/B       C            G                        D
e-----------------------------------7--------7-------------------10----10-------|
B--10---------9--------8------------8----8---8---------------7----------7---7---|
G--10---------9--------9------------7----7---7-----x--x------7----------7---7---|
D--10---------9-------10---------------------------x--x------7----------7---7---|
A-------------------------------------------------------------------------------|
E-------------------------------------------------------------------------------|
   F                             C                            B
e------------------------------------8--------8---8--8--------------7---7-7---7-|
B--10---10------10---------------8------------8---8--8---x-x--7-----7---7-7---7-|
G--10---10--10--10---x-x-x-x-----9------------9---9--9---x-x--8-----8---8-8---8-|
D--10-------10--10---x-x-x-x----10-------10--10----------x-x--9-----9---9-9---9-|
A-------------------------------------------------------------------------------|
E-------------------------------------------------------------------------------|

e--7--7-7-7--7--7--7-7-7--------|
B--7--7-7-7--7--7--7-7-7--------|
G--8--8-8-8--8--8--8-8-8--------|
D--9--9-9-9--9--9--9-9-9--------|
A-------------------------------|
E-------------------------------|

Chorus:
   E                                          D               A
e-------------------------------------------------------------------------------|
B--9-----9-9----------9-9-------9-------------------7-----7----------5-----5----|
G--9-----9-9----------9-9-9-----9------9-9----------7--7--7----------6-----6----|
D--9------------------9-9-9------------9-9-------7-----7--7-------7-----7-------|
A-------------------------------------------------------------------------------|
E-------------------------------------------------------------------------------|
  E
e----------------------------------------|
B-----9-----9---------9---9------9-------|
G-----9-----9---------9---9------9-------|
D--9-----9-----9------9---9---9--9-------|
A----------------------------------------|
E----------------------------------------|

Solo:
   E

e--12---12------15-15-15-15-15--14--14----12\11--12------------15-15-15-15-15---|
B-------12--------------------------------12\11--12--12--12---------------------|
G-------------------------------------------------------------------------------|
D-------------------------------------------------------------------------------|
A-------------------------------------------------------------------------------|
E-------------------------------------------------------------------------------|
                     D                     A                             E
                         1/2=========
e--14--14--12-------------------------------------------------------------------|
B--------------15---12--------15------------------------------------------------|
G------------------------14^------14^-----12-------------------12---------------|
D---------------------------------------------14--14\--/14--14-----14---/14--14-|
A-------------------------------------------------------------------------------|
E-------------------------------------------------------------------------------|

                                       1/2                              1/2
e-------------------------------------------------------------------------------|
B-------------------------------------------------------------------------------|
G-------------------------------------------------------------------------------|
D--14\---/14---14-14-14-14--12--14\----7^-----5----------------5--5\----7^---5--|
A-----------------------------------------------7--7\----5--7-------------------|
E-------------------------------------------------------------------------------|
                                       D                        A
         1/4                                                   Full
e-------------------------------------------------------------------------------|
B-----------------------------------------------------8----8---10^-----8--------|
G-------------------------------------------7----7--9----9---------------9--9\--|
D--------------------5-----5--7--7/9---7--9---9---------------------------------|
A--7--7--8^----5--7-----7-------------------------------------------------------|
E-------------------------------------------------------------------------------|
    E                                C                     B

e------------------12-12-12--------------------------------------------------12-|
B--12---12\-----12-12-12-12---12----12-------12-12-12-12--12---12--12--12-12-12-|
G--12---12\-----12-12-12-12---12----12----12-12-12-12-12--12---12--12--12-12-12-|
D--12---12\-----12-12---------12----12-------12-12-12-12--12---12--12--12-12-12-|
A-------------------------------------------------------------------------------|
E-------------------------------------------------------------------------------|
               C                                       G

e--12-12-12---15---15--15-15-15-15-15-15-15-15-15-14--14-14-14-14-14--14-14-14--|
B--12-12-12---12---12--12-12-12-12-12-12-12-12-12-12--12-12-12-12-12--12-12-12--|
G--12-12-12---12---12--12-12-12-12-12-12-12-12-12-12--12-12-12-12-12--12-12-12--|
D--12-12-12---12---12-----------------------------------------------------------|
A-------------------------------------------------------------------------------|
E-------------------------------------------------------------------------------|
                          D                                       A

e--14-14-14-14-14-14-14----------15-15-15-15-15-15-15-15-15-15---14---14-14-14--|
B--12-12-12-12-12-12-12--15--15--15-15-15-15-15-15-15-15-15-15---14---14-14-14--|
G--12-12-12-12-12-12-12--12--12--12-12-12-12-12-12-12-12-12-12---12---12-12-12--|
D-------------------------------------------------------------------------------|
A-------------------------------------------------------------------------------|
E-------------------------------------------------------------------------------|
                    C                              B

e--14-14-14--------------12---12---14-14--12--12--14--------14---14-14--14---14-|
B--14-14-14-14-14--------12---12---14-14--12--12--14----14--14---14-14--14---14-|
G--12-12-12--------12----12---12---14-14--12--12--14----14--14---14-14--14---14-|
D------------------------12---12---14-14--12--12--------------------------------|
A-------------------------------------------------------------------------------|
E-------------------------------------------------------------------------------|

e--14-14-14--14--14--14-14-14------|
B--14-14-14--14--14--14-14-14------|
G--14-14-14--14--14--14-14-14------|
D----------------------------------|
A----------------------------------|
E----------------------------------|

Chorus:
 E
e-------------------------------------------------------------------------------|
B--9--9--9-9-9--9---9---9----9--9--9-9-9-9---9---9-9--9--9--9-9-9--9---9---9-9--|
G--9--9--9-9-9--9---9---9----9--9--9-9-9-9---9---9-9--9--9--9-9-9--9---9---9-9--|
D--9--9--9-9-9--9---9---9----9--9--9-9-9-9---9---9-9--9--9--9-9-9--9---9---9-9--|
A-------------------------------------------------------------------------------|
E-------------------------------------------------------------------------------|
                  D                A                  E
e---------------------------------------------------------------------9---9--9--|
B--9--9--9-9-9----7----7----7------5---5---5-----x----9---9---9---9---9---9--9--|
G--9--9--9-9-9----7----7----7------6---6---6-----x----9---9---9---9---9---9--9--|
D--9--9--9-9-9----7----7----7------7-------7-----x----9-------9---9---9---9--9--|
A-----------------5----5----5------7--------------------------------------------|
E----------------------------------5--------------------------------------------|

e--9--------9-----9-9-9-9-9-------|
B--9--------9-----9-9-9-9-9-------|
G--9----9---9-----9-9-9-9-9-------|
D--9----9---9-----9-9-9-9-9-------|
A---------------------------------|
E---------------------------------|

Interlude:

e--9----|
B--9----|
G--9----|
D--9----|
A-------|
E-------|

Outro Solo:
  E6                                                                   D
e--------9--9--x-x--9---9-9-9-9-9--9--9--9--9-9-9-9---9-9-9-9---------15-----15-|
B--------9--9--x-x--9---9-9-9-9-9--9--9--9--9-9-9-9---9-9-9-9--12--12-----12----|
G--------9--9--x-x--9---9-9-9-9-9--9--9--9--9-9-9-9---9-9-9-9-------------------|
D--------7--7--x-x--7---7-7-7-7-7--7--7--7--7-7-7-7---7-7-7-7-------------------|
A-------------------------------------------------------------------------------|
E-------------------------------------------------------------------------------|
                                                                        Em
e--15-15---15-15-15-15-15-15-15--14-14-14-14-14--14-14-14-14-14-14-14-----------|
B--12-12---12-12-12-12-12-12-12--12-12-12-12-12--12-12-12-12-12-12-12---15--14--|
G-----------------------------------------------------------------------12--12--|
D-------------------------------------------------------------------------------|
A-------------------------------------------------------------------------------|
E-------------------------------------------------------------------------------|

e-------------------------------------------14-14-14-14-14-14-------------------|
B--15--15---14-14-15-14--12-12-14-14-14-14--14-14-14-14-14-14----------12--12---|
G--12--12---12-12-12-12--12-12-14-14-14-14--14-14-14-14-14-14---12-----12--12---|
D------------------------------------------------------------------12-----------|
A-------------------------------------------------------------------------------|
E-------------------------------------------------------------------------------|
                 1/4

e----------------14^----x-x-x---------------------------------------------------|
B--14--12-12-12--14^----x-x-x-----12--12-12-12-12-12-x-x----------12-12-12-12---|
G--14--12-12-12--14^----x-x-x--12-12--12-12-12-12-12-x-x--14-14---12-12-12-12---|
D------------------------------12-12--12-12-12-12-12-x-x--12-12---12-12-12-12---|
A-------------------------------------------------------------------------------|
E-------------------------------------------------------------------------------|
                   D
e---------------------------------------------------------------15-15-15-15----|
B-------12--------12-----14-14-14-------------------12--12--12--12-12-12-12----|
G--14---12--14----12--14-14-14-14-14--14-14--12-14--12--12--12--12-12-12-12----|
D--12---12--12----12--12-14-14-14-14--14-14--12-14-----------------------------|
A------------------------------------------------------------------------------|
E------------------------------------------------------------------------------|
                                                                   Em
e--15-15--15--15---17-17-17-17-17-17-15-15--15-15-15---------------15--14--15--|
B--12-12--12--12----0--0--0--0--0--0--0--0---0--0--0-12-12-12-12----0---0---0--|
G--12-12--12--12---14-14-14-14-14-14-14-14--14-14-14-12-12-12-12----0---0---0--|
D------------------------------------------------------------------------------|
A------------------------------------------------------------------------------|
E------------------------------------------------------------------------------|
                                                    1/2

e--14-15-14-15-14------14--16--12-------------------12-------|
B---0--0--0--0--0--12--12--12--12--15--14--15--12---12-------|
G---0--0--0--0--0--12--12--12--12--12--12--12--12---14^------|
D------------------------------------------------------------|
A------------------------------------------------------------|
E------------------------------------------------------------|

enjoy,
Joe
Comments