Rusted Root - Food And Creative Love Chords & Tabs

 

Food And Creative Love Chords & Tabs

Rusted Root Chords & Tabs

Version: 2 Type: Tab 0 ratings
1 star 2 stars 3 stars 4 stars 5 stars
comments

Food And Creative Love Tab

#----------------------------------PLEASE NOTE---------------------------------#
#This file is the author's own work and represents their interpretation of the #
#song. You may only use this file for private study, scholarship, or research. #
#------------------------------------------------------------------------------#
#


This has two meanings in my tab  ^
   1. It could mean a hammer on or a pull off
   2. It could mean a bend
I hope you have no trouble deciding which is which.  I'm limited on what I
could do on a keyboard.


Food & Creative Love


Intro:
                       ~~~~~                     ~~~~~~                   1/4
e---------------------------------------------------------------------------
----
B-------------------------------7------5^7--5-----------------------------5^----|
G---------------------5---------7^5----5^7--5-----------------5-----------5^----|
D-----------------5^7---------------7-----------7---------5^7-----7^5--7--------|
A-------------------------------------------------------------------------------|
E--5--5--3--5-------------------------------------------------------------------|
                 Verse:
          ~~~~~~                                      ~~~~~~~~           1/4
e-------------------------------------------------------------------------------|
B------------------------------------------------------------------------7^-----|
G-----------------------7---5--------------------------------------------7^-----|
D---7^5--7------------x---------------------------5--7-----------7^5------------|
A--------------------------------------------5^7--------------------------------|
E-------------------------------5--5--3--5--------------------------------------|

          1/2          1/4   ~~~~~~
e------------------------------------------------------------------------------|
B------------------------------------------------------------------------------|
G---------5^------7----5------------------5-----------5------------------------|
D----5^7--------------------7---------5^7----7----5^7----7---5---5----7--7--5--|
A------------------------------------------------------------------------------|
E------------------------------------------------------------------------------|

                  1/4
e-------------------------------------------------------------------------------|
B-----------------5^------------------------------------------------------------|
G-----x---x--7----5^--------7-------------------------------------5-------------|
D--7--------------------7---7---5---7------------------7--7--5--7------5---5--5-|
A------------------------------------------x--x--5^7----------------------------|
E-------------------------------------------------------------------------------|

e-------------------------------------------------------------------------------|
B-------------------------------------------------------------------------------|
G--------------------------5--5-------------x--x--x--7----7^0-------------------|
D--5--5--5---5--5---7-----------7--7--5--7--------------------------------------|
A--------------------------------------------------------------7--7--5--7---5^7-|
E--------------------------------------------------------------5--5--3--5-------|

e-------------------------------------------------------------------------------|
B-------------------------------------------------------------------------------|
G-------------------------------------------------------------------------------|
D--5--7-----------------7---5--5^7----------------------5---7-------------x---7-|
A---------7--7--5--7----------------7--7--5--7---x--5^7-------------------------|
E---------5--5--3--5----------------5--5--3--5----------------5--5--3--5--------|

e-------------------------------------------------------------------------------|
B-------------------------------------------------------------------------------|
G--------------------5^7------------------------------------x--7^5--------------|
D-----------------7-----------------------------------------x--7^5--------------|
A---------------------------------------5^7-----7--7--5--7-----------7--7--5--7-|
E--5--5--3--5--------------5--5--3--5-----------5--5--3--5-----------5--5--3--5-|

e-------------------------------------------------------------------|
B-------------------------------------------------------------------|
G----------7--------------------------------------------------------|
D---x---x--7----5----------------------5--7-------------------------|
A--------------------7--7--5--7----5^7---------7--7--5--7-----------|
E--------------------5--5--3--5----------------5--5--3--5-----------|

Gtr.I                                                                  1/4
e-----------------------------------------------------------------------------|
B------------------------------------------------------5^7--5----------5^-----|
G----------------------------------------------7^5-----5^7--5--7^5-----5^-----|
D-----------------------------------------5--7-----7-----------7^5--7---------|
A--7--7--5--7-------------------------5^7-------------------------------------|
E--5--5--3--5-------------5--5--3--5------------------------------------------|

e--------------------------------------------x-x-x-x-x-x-x-x------------------|
B--------------------7-----------------------x-x-x-x-x-x-x-x------------------|
G--------------x--x--7--x--x--x-----------------------------------------------|
D-----------------------------------------------------------------------------|
A--7--7--5--7--------------------7--7--5--7-----------------------7--7--5--7--|
E--5--5--3--5--------------------5--5--3--5-----------------------5--5--3--5--|

e-----------------------------------|
B-----------------------------------|
G--x--------------------------------|
D----x--x---------------------------|
A-----------5^7---7--7--5---7-------|
E-----------------5--5--3---5-------|

Gtr.II             Harm.                                Harm.
e---3--------0------12-------3---5--5--5---3-------0-----12--------|
B---3--------0------12-------3---5--5--5---3-------0-----12--------|
G------------0------12-----------5--5--5-----------0-----12--------|
D------------2-------------------------------------2---------------|
A------------2-------------------------------------2---------------|
E------------0-------------------------------------0---------------|

Faster:

e-------------------------------------------------------------------------------|
B--------------------7----------------------------------------------------------|
G--------------x-x-x-7-x-x-x------------------x-x-x-x-x-x-x-x-------------x-x-x-|
D-------------------------------------------------------------------------------|
A--7--7--5--7------------------7--7--7--5--7-------------------7--7--5--7-------|
E--5--5--3--5------------------5--5--5--3--5-------------------5--5--3--5-------|

            full======================
e--------------------------------------------------------|
B-----5--5--5---5----5----5----5----5----5---------------|
G--7--7--7--7^--7^---7^---7^---7^---7^------7^5----------|
D------------------------------------------------7-------|
A--------------------------------------------------------|
E--------------------------------------------------------|

Verses 2 & 3: (8x's)

e-------------------------------------------------------------------------------|
B----------------x-x-x-------------------x-x-7-7--5---------------x-x--x-x-x-x--|
G----------------x-x-x-------------------x-x-7-7--5---------------x-x--x-x-x-x--|
D-------------------------------------------------------------------------------|
A--7--7--5--7------------7--7--7--5--7----------------7--7--5--7----------------|
E--5--5--3--5------------5--5--5--3--5----------------5--5--3--5----------------|

e-------------------------------------|
B-----------------x-x-x-x-x-x-x-x-----|
G-----------------x-x-x-x-x-x-x-x-----|
D-------------------------------------|
A--7--7--7--5--7----------------------|
E--5--5--5--3--5----------------------|


Interlude:
                                     Full===
e-----------------------------------------------------------------------------|
B------------------------------------5----5-----------------------------------|
G------------------------------------7^---7^----------------------------------|
D-----------------------------------------------------------------------------|
A--7---5---7---7-7-7-5----7---7-7--------------7--7--5---7---7-7-7-5----7-----|
E--5---3---5---5-5-5-3----5---5-5--------------5--5--3---5---5-5-5-3----5-----|

                                                              Full========
e------------------------------------------------------------------------------|
B-------------------------------------------------------------5----5---5-------|
G-------------------------------------------------------------7^-------7^------|
D------------------------------------------------------------------------------|
A--7-7-7-5-5--7------7-7-7-7-5---7---7-7-7-5----7---7-7-7-5--------------------|
E--5-5-5-3-3--5------5-5-5-5-3---5---5-5-5-3----5---5-5-5-3--------------------|

e-----------------------------------------------------------|
B-----------------------------------------------------------|
G-----------------------------------------------------------|
D-----------------------------------------------------------|
A--7--7--5---7---7-7-7-5----7----7-7-5-5---7-x--x--x--x-----|
E--5--5--3---5---5-5-5-3----5----5-5-3-3---5-x--x--x--x-----|

Breakdown:
          Full=====================================          1/4
e-----------------------------------------------------------------------------|
B---------5----5-----5---5---5----5----5----5----5-----------5^-----7^5----5--|
G---------7^---7^----7^--7^--7^---7^---7^---7^---7^---7^5----5^-----7^5----5--|
D---------------------------------------------------------7-------------7-----|
A--7--------------------------------------------------------------------------|
E--5--------------------------------------------------------------------------|

e-------------------------------------------------------|
B--7^5----5---5-------7-7--7-7--7-7---7-7-7-7-7-5-------|
G--7^5----5---5-------7-7--7-7--7-7---7-7-7-7-7-5-------|
D------7------------------------------------------------|
A-------------------------------------------------------|
E-------------------------------------------------------|
[ Tab from: http://www.guitartabs.cc/tabs/r/rusted_root/food_and_creative_love_tab_ver_2.html ]
This was a little hard to tab, if you have any questions feel free to ask.
I'll let you know what shows I want in a few days, I have to go to the store
to get blanks.
enjoy,

Joe

From jwjenks@ix.netcom.com Tue May 13 14:00:12 1997
Date: Sun, 04 May 1997 15:03:34 -0500
From: Jeff Jenks 
To: guitar@olga.net
Subject: Food & Creative Love

TAB: "Food & Creative Love" by Rusted Root

Album: WHEN I WOKE
Track #: 9
transcriber: jmk269@postoffice.ptd.net (joseph kozak)
Submitted By: Jeff Jenks(jwjenks@ix.netcom.com)


Food & Creative Love


This has two meanings in my tab  ^
   1. It could mean a hammer on or a pull off
   2. It could mean a bend
I hope you have no trouble deciding which is which.  I'm limited on what
I
could do on a keyboard.


Food & Creative Love


Intro:
                       ~~~~~
~~~~~~                   1/4
e---------------------------------------------------------------------------
----
B-------------------------------7------5^7--5-----------------------------5^----|
G---------------------5---------7^5----5^7--5-----------------5-----------5^----|
D-----------------5^7---------------7-----------7---------5^7-----7^5--7--------|
A-------------------------------------------------------------------------------|
E--5--5--3--5-------------------------------------------------------------------|
                 Verse:
          ~~~~~~                                      ~~~~~~~~
1/4
e-------------------------------------------------------------------------------|
B------------------------------------------------------------------------7^-----|
G-----------------------7---5--------------------------------------------7^-----|
D---7^5--7------------x---------------------------5--7-----------7^5------------|
A--------------------------------------------5^7--------------------------------|
E-------------------------------5--5--3--5--------------------------------------|

          1/2          1/4   ~~~~~~
e------------------------------------------------------------------------------|
B------------------------------------------------------------------------------|
G---------5^------7----5------------------5-----------5------------------------|
D----5^7--------------------7---------5^7----7----5^7----7---5---5----7--7--5--|
A------------------------------------------------------------------------------|
E------------------------------------------------------------------------------|

                  1/4
e-------------------------------------------------------------------------------|
B-----------------5^------------------------------------------------------------|
G-----x---x--7----5^--------7-------------------------------------5-------------|
D--7--------------------7---7---5---7------------------7--7--5--7------5---5--5-|
A------------------------------------------x--x--5^7----------------------------|
E-------------------------------------------------------------------------------|

e-------------------------------------------------------------------------------|
B-------------------------------------------------------------------------------|
G--------------------------5--5-------------x--x--x--7----7^0-------------------|
D--5--5--5---5--5---7-----------7--7--5--7--------------------------------------|
A--------------------------------------------------------------7--7--5--7---5^7-|
E--------------------------------------------------------------5--5--3--5-------|

e-------------------------------------------------------------------------------|
B-------------------------------------------------------------------------------|
G-------------------------------------------------------------------------------|
D--5--7-----------------7---5--5^7----------------------5---7-------------x---7-|
A---------7--7--5--7----------------7--7--5--7---x--5^7-------------------------|
E---------5--5--3--5----------------5--5--3--5----------------5--5--3--5--------|

e-------------------------------------------------------------------------------|
B-------------------------------------------------------------------------------|
G--------------------5^7------------------------------------x--7^5--------------|
D-----------------7-----------------------------------------x--7^5--------------|
A---------------------------------------5^7-----7--7--5--7-----------7--7--5--7-|
E--5--5--3--5--------------5--5--3--5-----------5--5--3--5-----------5--5--3--5-|

e-------------------------------------------------------------------|
B-------------------------------------------------------------------|
G----------7--------------------------------------------------------|
D---x---x--7----5----------------------5--7-------------------------|
A--------------------7--7--5--7----5^7---------7--7--5--7-----------|
E--------------------5--5--3--5----------------5--5--3--5-----------|

Gtr.I
1/4
e-----------------------------------------------------------------------------|
B------------------------------------------------------5^7--5----------5^-----|
G----------------------------------------------7^5-----5^7--5--7^5-----5^-----|
D-----------------------------------------5--7-----7-----------7^5--7---------|
A--7--7--5--7-------------------------5^7-------------------------------------|
E--5--5--3--5-------------5--5--3--5------------------------------------------|

e--------------------------------------------x-x-x-x-x-x-x-x------------------|
B--------------------7-----------------------x-x-x-x-x-x-x-x------------------|
G--------------x--x--7--x--x--x-----------------------------------------------|
D-----------------------------------------------------------------------------|
A--7--7--5--7--------------------7--7--5--7-----------------------7--7--5--7--|
E--5--5--3--5--------------------5--5--3--5-----------------------5--5--3--5--|

e-----------------------------------|
B-----------------------------------|
G--x--------------------------------|
D----x--x---------------------------|
A-----------5^7---7--7--5---7-------|
E-----------------5--5--3---5-------|

Gtr.II             Harm.                                Harm.
e---3--------0------12-------3---5--5--5---3-------0-----12--------|
B---3--------0------12-------3---5--5--5---3-------0-----12--------|
G------------0------12-----------5--5--5-----------0-----12--------|
D------------2-------------------------------------2---------------|
A------------2-------------------------------------2---------------|
E------------0-------------------------------------0---------------|

Faster:

e-------------------------------------------------------------------------------|
B--------------------7----------------------------------------------------------|
G--------------x-x-x-7-x-x-x------------------x-x-x-x-x-x-x-x-------------x-x-x-|
D-------------------------------------------------------------------------------|
A--7--7--5--7------------------7--7--7--5--7-------------------7--7--5--7-------|
E--5--5--3--5------------------5--5--5--3--5-------------------5--5--3--5-------|

            full======================
e--------------------------------------------------------|
B-----5--5--5---5----5----5----5----5----5---------------|
G--7--7--7--7^--7^---7^---7^---7^---7^------7^5----------|
D------------------------------------------------7-------|
A--------------------------------------------------------|
E--------------------------------------------------------|

Verses 2 & 3: (8x's)

e-------------------------------------------------------------------------------|
B----------------x-x-x-------------------x-x-7-7--5---------------x-x--x-x-x-x--|
G----------------x-x-x-------------------x-x-7-7--5---------------x-x--x-x-x-x--|
D-------------------------------------------------------------------------------|
A--7--7--5--7------------7--7--7--5--7----------------7--7--5--7----------------|
E--5--5--3--5------------5--5--5--3--5----------------5--5--3--5----------------|

e-------------------------------------|
B-----------------x-x-x-x-x-x-x-x-----|
G-----------------x-x-x-x-x-x-x-x-----|
D-------------------------------------|
A--7--7--7--5--7----------------------|
E--5--5--5--3--5----------------------|


Interlude:
                                     Full===
e-----------------------------------------------------------------------------|
B------------------------------------5----5-----------------------------------|
G------------------------------------7^---7^----------------------------------|
D-----------------------------------------------------------------------------|
A--7---5---7---7-7-7-5----7---7-7--------------7--7--5---7---7-7-7-5----7-----|
E--5---3---5---5-5-5-3----5---5-5--------------5--5--3---5---5-5-5-3----5-----|


Full========
e------------------------------------------------------------------------------|
B-------------------------------------------------------------5----5---5-------|
G-------------------------------------------------------------7^-------7^------|
D------------------------------------------------------------------------------|
A--7-7-7-5-5--7------7-7-7-7-5---7---7-7-7-5----7---7-7-7-5--------------------|
E--5-5-5-3-3--5------5-5-5-5-3---5---5-5-5-3----5---5-5-5-3--------------------|

e-----------------------------------------------------------|
B-----------------------------------------------------------|
G-----------------------------------------------------------|
D-----------------------------------------------------------|
A--7--7--5---7---7-7-7-5----7----7-7-5-5---7-x--x--x--x-----|
E--5--5--3---5---5-5-5-3----5----5-5-3-3---5-x--x--x--x-----|

Breakdown:
          Full=====================================          1/4
e-----------------------------------------------------------------------------|
B---------5----5-----5---5---5----5----5----5----5-----------5^-----7^5----5--|
G---------7^---7^----7^--7^--7^---7^---7^---7^---7^---7^5----5^-----7^5----5--|
D---------------------------------------------------------7-------------7-----|
A--7--------------------------------------------------------------------------|
E--5--------------------------------------------------------------------------|

e-------------------------------------------------------|
B--7^5----5---5-------7-7--7-7--7-7---7-7-7-7-7-5-------|
G--7^5----5---5-------7-7--7-7--7-7---7-7-7-7-7-5-------|
D------7------------------------------------------------|
A-------------------------------------------------------|
E-------------------------------------------------------|
Comments