Rust - Not Today Chords & Tabs

 

Not Today Chords & Tabs

Rust Chords & Tabs

Version: 1 Type: Chords 0 ratings
1 star 2 stars 3 stars 4 stars 5 stars
comments

Not Today Chords

   
#----------------------------------PLEASE NOTE---------------------------------#
#This file is the author's own work and represents their interpretation of the #
#song. You may only use this file for private study, scholarship, or research. #
#------------------------------------------------------------------------------##
#

Date: Sat, 9 Mar 1996 14:44:39 -0500 (EST)
From: Bill Martin 


This song "Not Today" is on the album "Bar Chord Ritual."  It's by Rust.  
This song envolves basically power and Bar Chords w/ a lead guitar part.  
Here's the Tab:

Intro:

A-0-0-0-0-0-0-0-0      Keep repeating this 
E----------------
[ Tab from: http://www.guitartabs.cc/tabs/r/rust/not_today_crd.html ]
e------------------------------------------------------------------------
B------------------------------------------------------------------------
G---------------6--7-9---------------------------------------------------
D-----9--0-0-0-----------------------------------------------------------
A-0-0--------------------------------------------------------------------
E------------------------------------------------------------------------
Keep Repeating that too until you get to the fourth time when instead of:

G-----6--7-9
you do:
G-----9-7-6

The verse goes:
A   D

The Refrain is:

e----------------------------------------------------------------------------
B----------------------------------------------------------------------------
G-------9-9-9-------7-7-7-------9-9-9-------7-7-7----------------------------
D-7-7-7-9-9-9-5-5-5-7-7-7-7-7-7-9-9-9-5-5-5-7-7-7----------------------------
A-7-7-7-7-7-7-5-5-5-5-5-5-7-7-7-7-7-7-5-5-5-5-5-5----------------------------
E-5-5-5-------3-3-3-------5-5-5-------3-3-3----------------------------------

Solo:

e----------------7---7--
B-10-10-10-8-7-7---7---7

That's it.  E-mail me if you want me to put up more Rust Tabs.
=-=-=-=-=-=-=-=-=-=-=-=-=-=-=-=-=-=-=-=-=-=-=-=-=-=-=-=-=-=-=-=-=-=-=-=-=-=-=-
+ The mark I've Borne, a mark of scorn, to you- Billy Corgan from "Rocket"+


	http://www.tower-hill.pvt.k12.de.us/~bmartin/sp.html
=-=-=-=-=-=-=-=-=-=-=-=-=-=-=-=-=-=-=-=-=-=-=-=-=-=-=-=-=-=-=-=-=-=-=-=-=-=-=-


Comments