Russell Watson - Faith Of The Heart Chords & Tabs

 

Faith Of The Heart Chords & Tabs

Russell Watson Chords & Tabs

Version: 1 Type: Tab 0 ratings
1 star 2 stars 3 stars 4 stars 5 stars
comments

Faith Of The Heart Tab

Author: Russell Watson
Title: Faith of the Heart (Enterprise Theme)
Tabbed by: Rob Joyce
Email: rob_joyce@hotmail.com
Tabbed: 26/02/02

Here's the theme for the new Star Trek series 'Enterprise'. No-one 
else seems to have done this tab, so i thought id do it. I think its 
pretty much perfect. Enjoy!

Standard tuning

Intro (acoustic)

e|-------0-2---------2-0----------------3------------------------
B|-----3-----------------3--------------3-------------3----------
G|---2------------2--------2--4----2----0-------------4----------
D|-0-------------0-0----------4----2----0-------------4----------
A|----------------------------2----0----x-------------2----------
E|--------------------------------------3------------------------

    
e|--------3---3---3----------2--2--2--2--3--3--3--3--3--3--3--3-
B|--------3---3---3----------2--2--2--2--3--3--3--3--3--3--3--3-
G|--------0---2---0----------2--2--2--2--4--4--4--4--4--4--4--4-
D|----0---0---2---0----------4--4--4--4--5--5--5--5--5--5--5--5-
A|--4-----x---0---x----------4--4--4--4--5--5--5--5--5--5--5--5-
E|--------3---x---3----------2--2--2--2--3--3--3--3--0--0--0--0-
[ Tab from: http://www.guitartabs.cc/tabs/r/russell_watson/faith_of_the_heart_tab.html ]
   ...ive got faith of the heart...     ...faith to beleive...      
e|-3--3--3--3------------------------------------------------
B|-3--3--3--3------------------------------------------------
G|-4--4--4--4--7--7-7----------------------7--7-7------------
D|-5--5--5--5--7--7-7-5--5-5-5--5-5-4--4-4-7--7-7-5--5-5-4---
A|-5--5--5--5--5--5-5-5--5-5-5--5-5-4--4-4-5--5-5-5--5-5-4---
E|-0--0--0--0---------3--3-3-3--3-3-2--2-2--------3--3-3-2---
               <____________________________________________
                                      Chorus (distortion)
 
e|----------------
B|----------------
G|----------------
D|-4-4-5-5-7-7----
A|-4-4-5-5-7-7----
E|-2-2-3-3-5-5----
______________>

I can reach any star..ive got faith...
e|---------------------------------------------------------------
B|---------------------------------------------------------------
G|--4--4-4-------------------------------------------7--77-------
D|--4--4-4-2--2-2-2--2-2-5--5-5-5--5-5-7--7-7-7--7-7-7--77-2--2--
A|--2--2-2-2--2-2-2--2-2-5--5-5-5--5-5-7--7-7-7--7-7-5--55-2--2--
E|---------0--0-0-0--0-0-3--3-3-3--3-3-5--5-5-5--5-5-------0--0--

    
e|-----------------
B|-----------------
G|--------------7--
D|--5--5--7--7--7--(end)
A|--5--5--7--7--5--
E|--3--3--5--5-----

Solo (play to second chorus and ending)

                             bu                  bu
e|-----------------14-15-14-17(19)------------------------
B|---10->-15------------------------15-15-/-17-15(17)-----
G|--------------------------------------------------------
D|--------------------------------------------------------
A|--------------------------------------------------------
E|--------------------------------------------------------

e|----------------------------------10--14(17)------------
B|--10(12)(12)(12)(10)---7~~~~~-----------------15--------
G|--------------------------------------------------------
D|--------------------------------------------------------
A|--------------------------------------------------------
E|--------------------------------------------------------

Thats it!
Comments