Rush - Working Man Chords & Tabs

 

Working Man Chords & Tabs

Rush Chords & Tabs

Version: 1 Type: Tab 1 rating
1 star 2 stars 3 stars 4 stars 5 stars
comments

Working Man Tab

"Working Man"
Artist: Rush

I have only figured out the intro, verse and chorus.
The solo is very difficult and I'm working on it.

^=make a significantly lighter stroke
/=slide down
\=slide up

Intro/Verse:
[ Tab from: http://www.guitartabs.cc/tabs/r/rush/working_man_tab.html ]
E---------------------------------------
B---------------------------------------
G---------------------------------------
D---2-22---------------2-22-------------
A---2-22-----5---------2-22----3--3h5\--
E---0-00--0-----5\-----0-00--0----------
      ^                  ^
Chorus:

E------------------------------------------------------
B------------------------------------------------------
G------------------------------------------------------
D-2---2---2---2---0---0---0---0------------------------
A---2---2---2---2---0---0---0---0---5---5---7--0-5/7\--
E---------------------------------3---3---5---0--------

help yourself.
Comments