Rush - The Pass Chords & Tabs

 

The Pass Chords & Tabs

Rush Chords & Tabs

Version: 1 Type: Tab 0 ratings
1 star 2 stars 3 stars 4 stars 5 stars
comments

The Pass Tab

Band - Rush
Song - The Pass

Tuning: standard

Intro/Verse:     (x2 for Intro/First Verse and facet for Second Verse)
e|-----6--|-(6)--|-----6--|-(6)--------------------------------------|
B|o----6--|-(6)-o|o----6--|-(6)-------------------------------------o|
G|-----7--|-(7)--|-----8--|-(8)--------------------------------------|
D|-----8--|-(8)--|-----8--|-(8)--------------------------------------|
A|o-------|-----o|o---(6)-|-(6)-------------------------------------o|
E|--------|------|--------|------------------------------------------|

e|-----6--|-(6)--|-----6--|-(6)-|-----6--|-(6)-1--1--1--1------------|
B|o----6--|-(6)-o|-----6--|-(6)-|-----6--|-(6)-1--1--1--1------------|
G|-----7--|-(7)--|-----8--|-(8)-|-----8--|-(8)-2--2--2--3------------|
D|-----8--|-(8)--|-----8--|-(8)-|-----8--|-(8)-3--3--3--3------------|
A|o-------|-----o|----(6)-|-(6)-|----(6)-|-(6)-3--3--3--1------------|
E|--------|------|--------|-----|--------|-----1--1--1---------------|

Prechorus:
e|--1-----------------|-----------------1--1--1--1-------------------|
B|--1-----------------|-----------------1--1--1--1-------------------|
G|--3-----3--------3--|-(3)-------3-----2--2--2--3-------------------|
D|--3--------3--------|-----1-h3--------3--3--3--3-------------------|
A|--1--1--------1-----|--------------1--3--3--3--1-------------------|
E|--------------------|-----------------1--1--1----------------------|

e|--1-----------------|-----------------1--1--1----------------------|
B|--1-----------------|-----------------1--1--1----------------------|
G|--3-----3--------3--|-(3)-------3-----2--2--2----------------------|
D|--3--------3--------|-----1-h3--------3--3--3----------------------|
A|--1--1--------1-----|--------------1--3--3--3--3/------------------|
E|--------------------|-----------------1--1--1--1/------------------|

e|--6-----------------|-----------1--1--1--1/------------------------|
B|--6-----------------|-----------1--1--1--1/------------------------|
G|--8-----8--------8--|-(8)-------2--2--2--2/------------------------|
D|--8--8-----6--------|-----------3--3--3--3/------------------------|
A|--6--6--------6-----|-----------3--3--3--3/------------------------|
E|-(6)----------------|-----------1--1--1--1/------------------------|

e|--6-----------------|----------------------------------------------|
B|--6-----------------|----------------------------------------------|
G|--8-----8--------8--|-(8)------------------------------------------|
D|--8--8-----6--------|----------------------------------------------|
A|--6--6--------6-----|----------------------------------------------|
E|-(6)----------------|----------------------------------------------|

Chorus:
e|--------------------------|----------------------------------------|
B|--------------------------|----------------------------------------|
G|--------0--------0--------|--------0---------------0---------------|
D|-----3--------3--------3--|-----------0---------5-----5------------|
A|--5--------5--------5-----|-----3--------(5h)7---------------------|
E|--------------------------|--5-------------------------------------|

e|--------------------------|--------------1--1--1--1/---------------|
B|--------------------------|--------------1--1--1--1/---------------|
G|--------0--------0--------|--------0-----2--2--2--2/---------------|
D|-----3--------3--------3--|-----------0--3--3--3--3/---------------|
A|--5--------5--------5-----|-----3--------3--3--3--3/---------------|
E|--------------------------|--5-----------1--1--1--1/---------------|

e|--6-----6--6--6--6--6--|--6--6--6--6--8--8--8--8-------------------|
B|--6-----6--6--6--6--6--|--6--6--6--6--8--8--8--8-------------------|
G|--8-----8--8--8--8--8--|--8--8--8--8--10-10-10-10------------------|
D|--8--8--8--8--8--8--8--|--8--8--8--8--10-10-10-10------------------|
A|--6--6--6--6--6--6--6--|--6--6--6--6--8--8--8--8-------------------|
E|-----------------------|-------------------------------------------|

e|--6-----6--6--6--6--6--|--6--6--6--6--6------|----------------------
B|--6-----6--6--6--6--6--|--6--6--6--6--8------|----------------------
G|--8-----8--8--8--8--8--|--8--8--8--8--8------|----------------------
D|--8--8--8--8--8--8--8--|--8--8--8--8--8------|----------------------
A|--6--6--6--6--6--6--6--|--6--6--6--6--6------|----------------------
E|-----------------------|---------------------|----------------------

Interlude:
e|-----|---------12---|-(12)~------|--8------12p10--|-(10)~-(10)~----|
B|-----|---12---(12)--|-(12)-------|----------------|----------------|
G|-----|--------------|------------|----------------|--------9-------|
D|-----|--------------|------------|----------------|----------------|
A|-----|--------------|------------|----------------|----------------|
E|-----|--------------|------------|----------------|----------------|

e|-(10)~--------------|-------|-------|------------------------------|
B|--------------<7>---|-(<7>)-|-(<7>)-|-(<7>)------------------------|
G|-(9)---<7>---(<7>)--|-(<7>)-|--h10--|--(10)------------------------|
D|--------------------|--h5---|--(5)--|--(5)-------------------------|
A|--------------------|-------|-------|------------------------------|
E|--------------------|-------|-------|------------------------------|
[ Tab from: http://www.guitartabs.cc/tabs/r/rush/the_pass_tab.html ]
Verse:
e|--------------------------|    |-----------------------------------|
B|--------------------------|    |-----------------------------------|
G|--------------------------|    |--------8-----------8--------------|
D|--------8-----------8-----| x4 |-----8-----8-----8-----8-----------| x4
A|-----8-----8-----8-----8--|    |--6-----------6--------------------|
E|--6-----------6-----------|    |-----------------------------------|

e|--------------------------|    |-----------------------------------|
B|--------------------------|    |-----------------------------------|
G|--------------------------|    |--------8-----------8--------------|
D|--------8-----------8-----| x4 |-----8-----8-----8-----8-----------| x4
A|-----8-----8-----8-----8--|    |--6-----------6--------------------|
E|--6-----------6-----------|    |-----------------------------------|

Solo: (rhythm)
e|--------------------------|--------------1--1--1--1----------------|
B|--------------------------|--------------1--1--1--1----------------|
G|--8--8--8--8--8--8--8--8--|--8--8--8--8--2--2--2--3----------------|
D|--8--8--8--8--8--8--8--8--|--8--8--8--8--3--3--3--3----------------|
A|--6--6--6--6--6--6--6--6--|--6--6--6--6--3--3--3--1----------------|
E|--------------------------|--------------1--1--1-------------------|

e|--10\----|--6--|-(6)--------|-----|-------------|------------------|
B|--10\----|--6--|-(6)--------|-----|-------------|------------------|
G|--10\----|--7--|-(7)--3--5s-|-s7--|-(7)~--7--8--|--10--------------|
D|--10\----|--8--|-(8)--------|-----|-------------|-----8--5s8~------|
A|--10\----|--8--|-(8)--------|-----|-------------|------------------|
E|--10\----|--6--|-(6)--------|-----|-------------|------------------|

e|-------------|-----------------------|-----------------------------|
B|-------------|-----------------------|--------18~------------------|
G|------7~--8s-|-s10--(10b12)--(r10)~--|-(10)~-------15--------------|
D|-(8)~--------|-----------------------|-----------------------------|
A|-------------|-----------------------|-----------------------------|
E|-------------|-----------------------|-----------------------------|

e|---------------|-----------------|-------------|-------/11--13-----|
B|--15~----------|-(15)~--18~------|--15--(15)~--|-------------------|
G|-(15)~---------|-(15)~-------15--|-(15)-(15)~--|-------------------|
D|---------------|-----------------|-------15~---|-(15)~-------------|
A|---------------|-----------------|-------------|-------------------|
E|---------------|-----------------|-------------|-------------------|

e|--15-----------|--------11--13--|--15----15------15----13----------|
B|-----11-(11)~--|-(11)~----------|-----11------------11-------------|
G|---------------|----------------|----------------------------------|
D|---------------|----------------|----------------------------------|
A|---------------|----------------|----------------------------------|
E|---------------|----------------|----------------------------------|

e|--13----11----15-13-15-17--|--19~--|-(19)~--1--1--1--1-------------|
B|-----11--------------------|-------|--------1--1--1--1-------------|
G|---------------------------|-------|--------2--2--2--3-------------|
D|---------------------------|-------|--------3--3--3--3-------------|
A|---------------------------|-------|--------3--3--3--1-------------|
E|---------------------------|-------|--------1--1--1----------------|

Prechorus:
e|--1-----------------|-----------------1--1--1----------------------|
B|--1-----------------|-----------------1--1--1----------------------|
G|--3-----3--------3--|-(3)-------3-----2--2--2----------------------|
D|--3--------3--------|-----1-h3--------3--3--3----------------------|
A|--1--1--------1-----|--------------1--3--3--3--3/------------------|
E|--------------------|-----------------1--1--1--1/------------------|

e|--6-----------------|-----------1--1--1--1/------------------------|
B|--6-----------------|-----------1--1--1--1/------------------------|
G|--8-----8--------8--|-(8)-------2--2--2--2/------------------------|
D|--8--8-----6--------|-----------3--3--3--3/------------------------|
A|--6--6--------6-----|-----------3--3--3--3/------------------------|
E|-(6)----------------|-----------1--1--1--1/------------------------|

e|--6-----------------|-----------1--1--1--1/--|--6------------------|
B|--6-----------------|-----------1--1--1--1/--|--6------------------|
G|--8-----8--------8--|-(8)-------2--2--2--2/--|--8------------------|
D|--8--8-----6--------|-----------3--3--3--3/--|--8------------------|
A|--6--6--------6-----|-----------3--3--3--3/--|--6------------------|
E|-(6)----------------|-----------1--1--1--1/--|---------------------|

Outro:
e|--6-----------------|----------------------------------------------|
B|--6-----------------|--------------10-10-10-10---------------------|
G|--8--8--8-----------|--------------10-10-10-10---------------------|
D|--8--8--8--8--8--8--|--8--8--8--8--10-10-10-10---------------------| x3
A|--6--6--6--5--5--5--|--6--6--6--6--8--8--8--8----------------------|
E|--------------------|-----6--6-------------------------------------|

e|--6--6--6--6--6--6--|--6--6--6--6--6------|
B|--6--6--6--6--6--6--|--6--6--6--6--6------|
G|--8--8--8--8--8--8--|--8--8--8--8--8------|
D|--8--8--8--8--8--8--|--8--8--8--8--8------|
A|--6--6--6--6--6--6--|--6--6--6--6--6------|
E|--------------------|---------------------|
Comments