Rush - Spirit Of Radio Chords & Tabs

 

Spirit Of Radio Chords & Tabs

Rush Chords & Tabs

Version: 2 Type: Tab 0 ratings
1 star 2 stars 3 stars 4 stars 5 stars
comments

Spirit Of Radio Tab

Intro
e|-2p0-----5p0-----|-2p0-----4p2-------|-----------------------
B|-----3p0-----3p0-|-----3p0----3p0----|-----------------------
G|-----------------|-------------------|-----------------------
D|-----------------|-------------------|--4-4p2p0--------------
A|-----------------|-------------------|-----------4p2p0-------
E|-----------------|-------------------|-----------------------
              repeats 9 times               ^do this once^

e|------------------------------|
B|------------------------------|
G|------------------------------|
D|-2--------2--------2----------| 
A|-2--------0--2-3h4------------| 
E|----2-3-4---------------------|
              repeats 4 times      

e|-----------------------------------------------|
B|-----------------------------------------------|
G|-----------------------------------------------|
D|---2-----9----9/6-6-6-6-6-6-6-6-6--7-7-7-7-7--9|
A|---2-----9----9/6-6-6-6-6-6-6-6-6--7-7-7-7-7--9|
E|---------7----7/4-4-4-4-4-4-4-4-4--5-5-5-5-5--7|


riff 1
e|-------0-------0--------0---------------------|   
B|---------0-------0--------0-------------------|
G|---9-9/----4-4------4-4------------6--4-------|
D|---9-9/----4-4------4-4-------9-9--6--4-------|
A|---7-7/----2-2------2-2-------9-9--4--2-------|
E|--------------------4-4-------7-7-------------|

verse

e|-------0-------0--------0---------------------------|   
B|---------0-------0--------0-------------------------|
G|---9-9/----4-4------4-4-----------------------------|
D|---9-9/----4-4------4-4--------7-7---9-9------------|
A|---7-7/----2-2------2-2--------7-7---7-7------------|
E|--------------------4-4--------5-5---7-7------------|
  first 2 times are like this^^, then repeat riff 1
[ Tab from: http://www.guitartabs.cc/tabs/r/rush/spirit_of_radio_tab_ver_2.html ]
  riff 2
e|-------4-------7---------4p0------------------------|   
B|---------5-------7-------4p0------------------------|
G|---9-9-----4-4------4-4-----------------------------|
D|---9-9-----4-4------4-4--------7-7---9-9------------|
A|---7-7-----2-2------2-2--------7-7---9-9------------|
E|--------------------4-4--------5-5---7-7------------|

 the 3rd and 4th ones are like this^^ 

 then back to riff 1 but play it like this


e|-------0-------0-----------------------------------------|
B|---------0-------0---------------------------------------|
G|---9-9/----4-4-------------------------------------------|
D|---9-9/----4-4----------9/6-6-6-6-6-6-6-6-6-7-7-7-7-7-9--|
A|---7-7/----2-2----------9/6-6-6-6-6-6-6-6-6-7-7-7-7-7-9--|
E|------------------------7/4-4-4-4-4-4-4-4-4-7-7-7-7-7-7--|

Intro starts again and continues through the chorus(14 times)

until the verse which goes like this

e|---0-0-0-0--0-0-0-0--0-0-0-0--0-0-0-0-0-----------|
B|---0-0-0-0--0-0-0-0--0-0-0-0--0-0-0-0-0-----------|
G|---9-9-9-9--4-4-4-4--4-4-4-4--0-0-0-0-0-----------|
D|---9-9-9-9--4-4-4-4--4-4-4-4--7-7-7-7-9-----------|
A|---7-7-7-7--2-2-2-2--2-2-2-2--7-7-7-7-7-----------|
E|---0-0-0-0--0-0-0-0--4-4-4-4--5-5-5-5-7-----------|
            do that 4 times, the 5th time goes like this 

e|---0-0-0-0--0-0-0-0------------------------------|
B|---0-0-0-0--0-0-0-0------------------------------|
G|---9-9-9-9--4-4-4-4------------------------------|
D|---9-9-9-9--4-4-4-4--6-6-6-6-6-6-6-6-7-7-7-7-7-9-|
A|---7-7-7-7--2-2-2-2--6-6-6-6-6-6-6-6-7-7-7-7-7-9-|
E|---0-0-0-0--0-0-0-0--4-4-4-4-4-4-4-4-5-5-5-5-5-7-|
       
then the intro starts again (12 times)


thats about all i know... fill the rest in and have fun

tabbed by: jimmy and a little help from justin
Comments