Rush - Something Fro Nothing Chords & Tabs

 

Something Fro Nothing Chords & Tabs

Rush Chords & Tabs

Version: 1 Type: Bass Tab 0 ratings
1 star 2 stars 3 stars 4 stars 5 stars
comments

Something Fro Nothing Bass Tab

   
Rush: "Something For Nothing" bass tab
======================================

Transcribed by: Michael Lickner



     h q e e   Q q e q   h e e e e   Q q e q 2x
+------------+---------+-----------+----------+
|*4:---7-----|---------|---2-------|---------*|
|*4:-----5-6-|-7-5-5---|-----2-----|---3-2---*|
+----5-------+-------5\+-0-----0-2-+-3-----3--+

    Q e q e e   Q q e q    Q e e e e e   q  e e e e e   
+-------------+----------+-------------+--------------+
|4:---7-7-----|----------|---2-2-------|--------------|
|4:-------5-6-|-7-5-7----|-------2-----|----2-3-2-----|
+---5---------+-------7\-+-0-------0-2-+-3--------3-4-+

    Q e q e e  Q q e q    Q e e e e e   q   e e e e e   Q e e e e e   h   e e e e  
+-------------+----------+-------------+---------------+-------------+-------------+
|4:---7-7-----|----------|-----2-------|---------------|---2-2-------|-----------R-|
|4:-------5-6-|-7-5-7----|-------2-----|-----2-3-2-----|-------2-----|-------------|
+---5---------+-------7\-+-0-0-----0-2-+-3---------3-2-+-0-------0-2-+-3---3-2-3---+

  e e e e e e e e   e e e e e q   Q e e e e e   Q  e e e e e   e e e e e e e e  
+-----------------+-------------+-------------+--------------+-----------------+
|-----R---R---R---|-R---R-----R-|-----2-------|--------------|-----R---R---R---|
|-----------5-----|---5---------|-------2-----|--------------|-----------5-----|
+-5-5---5-------5-+-------5-5---+-0-0-----0-2-+-3--3-3-2-3-4-+-5-5---5-------5-+

  e e e e e q     q e q e q     e s s s e  s s e e   e e e q e e e   e e e e e e e e  
+---------------+-------------+--------------------+---------------+-----------------+
|-R---R---------|---7---7-----|--------------------|-------2-------|-----------------|
|---5-------12\x|-0---0---7\x-|-3-3-3-3-5--5-5-3---|-----2---2-----|-5-5-3-3---3-3---|
+-------5-5-----+-------------+------------------5-+-0-0-------0-2-+---------3-----3-+

  q e q e q     e s s s e s s e e  e e e e s s s q  
+------------+-------------------+-----9-7----------+
|---7---7----|-------------------|---------9p7\5----|
|-0---0---7\x|-3-3-3-3-5-5-5-3-5-|-7-------------7\x|
+------------+-------------------+---0--------------+

  e s s e s s e e e e   Q e e e e e
+---------------------+-------------+
|---------------------|-----2-------|
|-5-5-5-3-3-3-2-2-3---|-------2-----|
+-------------------3-+-0-0-----0-2-+

  Q  e e e e e   e e e e e e e e   e e e e e e q      Q e e e e e   Q e e e e e  
+--------------+-----------------+------------------+-------------+-------------+
|--------------|-----R---R---R---|-R---R------------|---2-2-------|-------------|
|--------------|-----------5-----|---5-------R-12\x-|-------2-----|-------------|
+-3--2-3-2-3-4-+-5-5---5-------5-+-------5-5--------+-0-------0-2-+-3-2-3-2-3-4-+

  e e e e e e e e   e e e e e e e e   e e e e e e e e   e e e e e e q   
+-----------------+-----------------+-----------------+-----------------+
|-----R---R---R---|-R---R---R-----R-|-7-7-R-7-R---R-7-|-R---R-7-7-R-----|
|-----------5-----|---5-------------|-----------5-----|---5---------3/x-|
+-5-5---5-------5-+-------5---5-5---+-----------------+-----------------+

  e s s e s s q e e   e e e q e e e
+-------------------+---------------+
|-7-7-0-5-5---------|---------------|
|-----------0-5-0-2-|-3-2-0-2---0-0-|
+-------------------+---------3-----+

  s s s s e s s q e e   e e e q  e e
+---------------------+----------------+
|-5h7-0-0-5-----------|----------------|
|-----------0-0-5-0-2-|-3-2---0--0-3/x-|
+---------------------+-----3----------+

  e s s e s s q e e   e e e q e e e
+-------------------+---------------+
|-7-7-0-5-5---------|---------------|
|-----------0-5-0-2-|-3-2-0-2---0-0-|
+-------------------+---------3-----+

  s s s s e s s h     e q q  e e e+  e e e e e e e e   w+    h q q 
+-------------------+-------------+-----------------+-----+----------+
|-5h7-0-0-5---------|---R-------5-|---------------5-|-----|----------|
|-----------0-0-5\x-|-0-----2-3---|---3-2---2-3-5---|-0---|-----12\x-|
+-------------------+-----3-------+-------3---------+-----+----------+

  q e q e q     e s s s e s s e e  e e e e s s s q    e s s e s s e e e e   
+------------+-------------------+-----9-7----------+---------------------+
|---7---7----|-------------------|---------9p7\5----|---------------------|
|-0---0---7\x|-3-3-3-3-5-5-5-3-5-|-7-------------7\x|-5-5-5-3-3-3---3---3-|
+------------+-------------------+---0--------------+-------------3---3---+

  q e q e q     e s s s e s s e e  e e e e e e e e  
+------------+-------------------+-----------------+
|---7---7----|-------------------|-----2-----2-----|
|-0---0---7\x|-3-3-3-3-5-5-5-3---|---2---2-----0-3-|
+------------+-----------------5-+-0-------0-------+

  e s s e s s e s s s s e   Q e e e e e   Q e e e e e
+-------------------------+-------------+-------------+
|-------------------------|-----2-------|-----------R-|
|-5-5-5-3-3-3-2-2-0-3-2---|-------2-----|-------------|
+-----------------------3-+-0-0-----0-2-+-3-2-3-2-3---+

  e e e e e e e e   e e e e e e e e    Q e e e e e   Q   e e e e e
+-----------------+------------------+-------------+---------------+
|-----R---R---R---|-R---R----5h7-5---|-----2-------|---------------|
|-----------5-----|---5------------7-|-------2-----|---------------|
+-5-5---5-------5-+-------5-5--------+-0-0-----0-2-+-3---2-3-2-3-4-+
[ Tab from: http://www.guitartabs.cc/tabs/r/rush/something_fro_nothing_btab.html ]
e e e e e e e e   e e e e e e e e   e e e e e e e e   e e e e e e q   
+-----------------+-----------------+-----------------+-----------------+
|-----R---R---R---|-R---R---R-----R-|-7-7-R-7-R---R-7-|-R---R-7-7-R-----|
|-----------5-----|---5-------------|-----------5-----|---5---------3/x-|
+-5-5---5-------5-+-------5---5-5---+-----------------+-----------------+

  e s s e s s q e e   e e e q e e e
+-------------------+---------------+
|-7-7-0-5-5---------|---------------|
|-----------0-5-0-2-|-3-2-0-2---0-0-|
+-------------------+---------3-----+

  s s s s e s s q e e   e e e q  e e
+---------------------+----------------+
|-5h7-0-0-5-----------|----------------|
|-----------0-0-5-0-2-|-3-2---0--0-3/x-|
+---------------------+-----3----------+

  e s s e s s q e e   e e e q e e e
+-------------------+---------------+
|-7-7-0-5-5---------|---------------|
|-----------0-5-0-2-|-3-2-0-2---0-0-|
+-------------------+---------3-----+

  s s s s e s s h     e q q  e e e+  e e e e e e e e  w    +w 
+-------------------+-------------+-----------------+-----+-----+
|-5h7-0-0-5---------|---R-------5-|---4-2-----5---5-|-7---|-----|
|-----------0-0-5\x-|-0-----2-3---|-------2-3---5---|-----|-----|
+-------------------+-----3-------+-----------------+-----+-----+

 +w  +w    w   Q h+e   w   Q h e   w   q^q^q q q     q e q e e e  
+---+----+---+-------+---+-------+---+-------------+-------------+
|---|----|---|-------|---|-------|---|-------------|---7---7-----|
|---|----|---|-------|---|-7-5---|---|---------7\x-|-0---0---5-6-|
+---+----+-0-+-3-5---+-5-+-----0-+-0-+-3-3-3-5-----+-------------+

  e sss e se q   e e e q e e e   e e e e e e e e   q e q e e e   e sss e se q 
+--------------+---------------+-----------------+-------------+--------------+
|--------------|-----2---2-----|-----------------|---7---7-----|--------------|
|-7-777-5-55-7\|---------------|-------3-2-3-2---|-0---0---5-6-|-7-777-5-55-7\|
+--------------+-0-0---0---0-2-+-3-2-3---------3-+-------------+--------------+

  q e q e e e   e e e e e e e e    Q e e e e e   Q e e e e e   e e e e e e e e  
+-------------+------------------+-------------+-------------+-----------------+
|---2---2-----|---------------7/x|-----2-------|-------------|-----R---R---R---|
|-------------|-------0-0-3-5----|-------2-----|-------------|-----------5-----|
+-0---0---0-2-+-3-2-3------------+-0-0-----0-2-+-3-2-3-2-3-4-+-5-5---5-------5-+

  e e e e e  e  e e   Q e e e e e   Q e e e e e                                      
+-------------------+-------------+-------------+
|-R---R-----5h7-5-7-|-----2-------|-------------|
|---5---------------|-------2-----|-------------|
+-------5-5---------+-0-0-----0-2-+-3-2-3-2-3-4-+

  e e e e e e e e   e e e e e e e e   e e e e e e e e   e e e e e e q   
+-----------------+-----------------+-----------------+-----------------+
|-----R---R---R---|-R---R---R-----R-|-7-7-R-7-R---R-7-|-R---R-7-7-R-----|
|-----------5-----|---5-------------|-----------5-----|---5---------3/x-|
+-5-5---5-------5-+-------5---5-5---+-----------------+-----------------+

  e s s e s s q e e   e e e q e e e   s s s s e s s q e e   e e e q  e e
+-------------------+---------------+---------------------+----------------+
|-7-7-0-5-5---------|---------------|-5h7-0-0-5-----------|----------------|
|-----------0-5-0-2-|-3-2-0-2---0-0-|-----------0-0-5-0-2-|-3-2---0--0-3/x-|
+-------------------+---------3-----+---------------------+-----3----------+

  e s s e s s q e e   e e e q e e e   s s s s e s s q e e   e e e q  e e
+-------------------+---------------+---------------------+----------------+
|-7-7-0-5-5---------|---------------|-5h7-0-0-5-----------|----------------|
|-----------0-5-0-2-|-3-2-0-2---0-0-|-----------0-0-5-0-2-|-3-2---0--0-3/x-|
+-------------------+---------3-----+---------------------+-----3----------+

  e s s e s s q e e   e e e q e e e   s s s s e s s q e e   e e e q  e e
+-------------------+---------------+---------------------+----------------+
|-7-7-0-5-5---------|---------------|-5h7-0-0-5-----------|----------------|
|-----------0-5-0-2-|-3-2-0-2---0-0-|-----------0-0-5-0-2-|-3-2---0--0-3/x-|
+-------------------+---------3-----+---------------------+-----3----------+

  e s s e s s q e e   e e e q e e e   s s s s e s s q e e   e e e q  e e
+-------------------+---------------+---------------------+----------------+
|-------------------|---------------|---------------------|----------------|
|-5-5-0-3-3-0-5-0-2-|-3-2-0-2---0-0-|-3h5-0-0-3-0-0-5-0-2-|-3-2---0--0-3/x-|
+-------------------+---------3-----+---------------------+-----3----------+

  e s s e s s q e e   e e e q e e e   s s s s e s s q e e   e e e q  e e
+-------------------+---------------+---------------------+----------------+
|-7-7-0-5-5---------|---------------|-5h7-0-0-5-----------|----------------|
|-----------0-5-0-2-|-3-2-0-2---0-0-|-----------0-0-5-0-2-|-3-2---0--0-3/x-|
+-------------------+---------3-----+---------------------+-----3----------+

  e s s e s s q e e   e e e q e e e   s s s s e s s q e e   e e e q  e e
+-------------------+---------------+---------------------+----------------+
|-7-7-0-5-5---------|---------------|-5h7-0-0-5-----------|----------------|
|-----------0-5-0-2-|-3-2-0-2---0-0-|-----------0-0-5-0-2-|-3-2---0--0-3/x-|
+-------------------+---------3-----+---------------------+-----3----------+


============================================================================




  Notes:  w = Whole  h = Half  q = Quarter
          e = 8th    s = 16th  
  
          Capital durations are dotted notes
          (equal to 1.5 times the duration value)
     
            #
       +----+                     +----+
       |*--*+  = MEASURE          |4:--|  = TIME
       |*--*+    REPEATS          |4:--|    SIGNATURES
       +----+   (#=Num Repeats)   +----+
   
      H = HAMMER ON    \  = SLIDE TO FRET      R = Rest
      P = PULL OFF     \X = SLIDE TO NOWHERE   ~ = Trill
Comments