Rush - Passage To Bangkok Chords & Tabs

 

Passage To Bangkok Chords & Tabs

Rush Chords & Tabs

Version: 1 Type: Tab 1 rating
1 star 2 stars 3 stars 4 stars 5 stars
comments

Passage To Bangkok Tab

#----------------------------------PLEASE NOTE---------------------------------#
#This file is the author's own work and represents their interpretation of the #
#song. You may only use this file for private study, scholarship, or research. #
#------------------------------------------------------------------------------##

Subject: A Passage To Bangkok tabs.

Transcription by: Charles Grogan


Intro Rif                             'Eastern sounds'
------------------------------------|-10-10-10-10-9-9-------9--------
------------------------------------|--8--8--8--8-7-7-10-10-7--------
------------------------------------|------------------7--7----------
------------------------------------|--------------------------------
----7---5---7->-2-2-----------------|--------------------------------
0-0---0---0---------0-0-8-0-7-8->-3-|--------------------------------

>From 'The natives smile..'
       
-------_--------------|----------------------------------------------
-8-7--8-7--------_----|----------------------------------------------
----------8-9-8-9-8---|----------------------------------------------
--------------------9-|----------------------------------------------
----------------------|----------------------------------------------
----------------------|----------------------------------------------

>From 'Sweet Jamaican pipedreams..'

-----------------3-|-------------------------------------------------
9-7-9->-4--5-5-5-3-|-------------------------------------------------
9-7-9->-4--5-5-5-4-|-------------------------------------------------
9-7-9->-4--5-5-5-5-|-------------------------------------------------
7-5-7->-2--3-3-3-5-|-------------------------------------------------
-----------------3-|-------------------------------------------------

Chorus

-2-3-7-5-2-3-2-3-0-2--2-3-7-8-7-2-3-0-|------------------------------
-3-5-8-7-3-3-3-0-2-3--3-5-8-8-8-3-0-2-|------------------------------
-2-5-7-7-2-3-2-0-2-2--2-5-7-7-7-2-0-2-|------------------------------
-0-0-0-0-0-0-0-0-2-0--0-0-0-0-0-0-0-2-|------------------------------
---------------2-0----------------2-0-|------------------------------
---------------3------------------3---|------------------------------

Solo

---------------------------------------------------------------------
10---------------------------------_-_-_-_-_-_--12-!-----------------
-9->-(11)->-9-7-7->-(9)->-7---7->-4-7-4-7-4-7-4----------------------
----------------------------9----------------------------------------
---------------------------------------------------------------------
---------------------------------------------------------------------

---10-12-10----10----------------------_-----------------------------
12----------12----12->-(15)->-12-!---14-12_----12--------------------
-------------------------------------------13-----14->-(16)->-14-----
---------------------------------------------------------------------
---------------------------------------------------------------------
---------------------------------------------------------------------


---------------------------------------------------------------------
12-10----------------------------------------------------------------
------11-9-11-9->-(11)->-9-!-->-11-9->-(11)-9-9->-(11)->-9--9-8-7----
---------------------------------------------------------------------
---------------------------------------------------------------------
---------------------------------------------------------------------


---------------------------------------------------------------------
---------------------------------------------------------------------
---------------------------------------------------------------------
9-8-7----------------------------------------------------------------
------9-8-7--------------------_-----------_---------------_---------
------------11-10-9-7--7-7-7--7-9--9-9-9--9-10--10-10-10-10-12-12-12-

[ Tab from: http://www.guitartabs.cc/tabs/r/rush/passage_to_bangkok_tab.html ]
---------------------------------------------------------------------
--------------------------_------------------------------------------
--------7---7-9->-(11)->-9-7_----------------------------------------
----7-9---9------------------7---------------------------------------
9-9------------------------------------------------------------------
---------------------------------------------------------------------

                                                               _  _
----------------------------------------7-9-10-10->-(12)-10-7-7-10-7_---7
-----------7-10-10->-(12)->-10-7---7-10------------------------------10--
9-9->-(11)-----------------------9---------------------------------------
-------------------------------------------------------------------------
-------------------------------------------------------------------------
-------------------------------------------------------------------------


------10-----------------------------_------------_-----------_------
10-12----12->-(15)->-12--12-12-12--10-12-12-12--12-10_---10-10-7-----
------------------------------------------------------11-------------
---------------------------------------------------------------------
---------------------------------------------------------------------
---------------------------------------------------------------------


---------------------------------------------------------------------
-_---------------10----------10----------10----------10-10-----------
9-7_--7-9->-(11)----9->-(11)----9->-(11)----9->-(11)-----9->-(11)----
----9----------------------------------------------------------------
---------------------------------------------------------------------
---------------------------------------------------------------------


-------------------------------------17----------_---------------------
---------10-10-------------17->-(19)----(19)->-17-15_---15-----------15
9->-(11)-----9->-(11)->-16---------------------------16----14->-(16)---
-----------------------------------------------------------------------
-----------------------------------------------------------------------
-----------------------------------------------------------------------


------------------------------------------------------------------_--
----------15-----------15------------12-12-10----10-12->-(14)->-12-10
14->-(16)----14->-(16)----14->-(16)-----------11---------------------
---------------------------------------------------------------------
---------------------------------------------------------------------
---------------------------------------------------------------------


--2-|----------------------------------------------------------------
--3-|----------------------------------------------------------------
9-2-|----------------------------------------------------------------
--0-|---------0-0-1-1-2----------------------------------------------
----|-0-0-4-4--------------------------------------------------------
----|----------------------------------------------------------------

---
Explanation on used symbols:

|  - A pair of these indicate a part of music, not the usuals bars.
:  - Indicates that a part is to be repeated. This may be ommited, you should 
     hear it too.
_  - Indicates a hammer-on or pull-off (You should know which is appropriate)
>  - Indicates a bend-up or down or a slide. With a bend, the note to bend to
     is between '(' and ')'. Use the whammy for a downbend. With a slide, the
     follow-up note is the one to be slid to.
!  - Indicates vibrato.
^  - Indicates harmonics. Is printed below the note.

For corrections or questions on the tabs, contact the author. If no e-mail 
address is included, contact Frank or Jason, addresses below.

For remarks, suggestions or additions on the tab 'archive', contact:

Frank                       or      Jason
(schaaphe@serc.nl)                  (bold%astroatc.uucp@cs.wisc.edu)

HAPPY PLAYING!!
Comments