Rush - Open Secrets Chords & Tabs

 

Open Secrets Chords & Tabs

Rush Chords & Tabs

Version: 1 Type: Bass Tab 0 ratings
1 star 2 stars 3 stars 4 stars 5 stars
comments

Open Secrets Bass Tab

   
Rush: Open Secrets
>From the album Hold Your Fire (Mercury Records)
Copyright 1987 Core Music Publishing
Music by Lee and Lifeson
Lyrics by Peart

Comments/corrections to Sean Jones 

Transcribed by Erik Habbinga and Sean Jones


     s s s s e q Q   +w   s s s s e q e q   +w
+--------------0-2-+----+-----------0-2---+-----+
|*4:-2-3-2-0-------|----|-2-3-2-0-------3-|----*|
|*4:---------3-----|----|---------3-------|----*|
+------------------+----+-----------------+-----+


  s s s s e q Q   +w   s s s s e q e q   +e q e e e e e
+-----------0-2-+----+-----------0-2---+----------------+
|-2-3-2-0-------|----|-2-3-2-0-------3-|----R-2-3-2---0-|
|---------3-----|----|---------3-------|------------3---|
+---------------+----+-----------------+----------------+


  +Q q q e   q q e e e e   +Q q q e   q q e e e e   +h+Q e   q e e e e e e
+----------+-------------+----------+-------------+--------+---------------+
|----------|-----3-2-----|----------|-------------|--------|---------------|
|----5-5---|-3-5-----3-5-|----5-5---|-3-5-5-3-----|--------|-----------3---|
+--------5-+-------------+--------5-+---------5-1-+------1-+-1-1-1-3-5---5-+


  +e+h e q   h+Q e   e e e q e e e   e e e q q e   e e e q q e   e e e q e e e
+----------+-------+-------5-------+-------5-----+-------5-----+-------5-------+
|----------|-------|-----3-------3-|-----3-----3-|-----3-----3-|-----3---------|
|------3---|-----3-|-5-5-----3-3---|-5-5-----3---|-5-5-----3---|-5-5-----3-3---|
+--------5-+-3-----+---------------+-------------+-------------+-------------3-+


  Q Q e e   Q Q e e   Q q q e   e e e e e e e e   e e e q e e e   e e e q q e
+---------+---------+---------+-----------------+-------5-------+-------5-----+
|---3-----|---3-----|-----3-5-|-----5---3-R-2---|-----3-------3-|-----3-----3-|
|-1-------|-1-------|---5-----|-------5-------3-|-5-5-----3-3---|-5-5-----3---|
+-----1-1-+-----1-1-+-3-------+-3-3-------------+---------------+-------------+


  e e e q q e   e e e q e e e   Q Q e e   Q Q e e   Q q q e   e e e e e e e
+-------5-----+-------5-------+---------+---------+---------+---------------+
|-----3-----3-|-----3---------|---3-----|---3-----|-----3-5-|-----5---3-2---|
|-5-5-----3---|-5-5-----3-3---|-1-------|-1-------|---5-----|-------5-----3-|
+-------------+-------------3-+-----1-1-+-----1-1-+-3-------+-3-3-----------+


  w   +w   +w   +h e e e e   +Q q q e   q q e e e e   +Q q q e   e e q e e e
+---+----+----+------------+----------+-------------+----------+---------------+
|---|----|----|----3-2-----|----------|-----3-2-----|----------|-------3-2-----|
|-5-|----|----|--------3-5-|----5-5---|-3-5-----3-5-|----5-5---|-3---5-----3-5-|
+---+----+----+------------+--------5-+-------------+--------5-+---5-----------+


  +e e e q q e   e e e e e e e e   +e e e q e e e   +e e e e e e q   e+h q e
+--------------+-----------------+----------------+----------------+---------+
|--------------|-----R---3-2-----|------R-----R---|------R---------|---------|
|----5-5-5-5-5-|-5-5---5-----3-5-|----5---5-5---5-|----5---5-3-3---|---------|
+--------------+-----------------+----------------+--------------5-+-1---1-1-+


  e e e e e e e e   +e+h e e e   q^q^q^s s s s e e   +e e e q e q
+-----------------+------------+-------------------+--------------+
|-----------------|------------|-------2-3-2-0-----|------R-----R-|
|-------------3---|------------|---------------3-5-|----5---5-5---|
+-1-1-1-1-3-5---5-+------5-5-5-+-5-5-5-------------+--------------+


  +e q e e e e e   e e e q e q   +e q e e e q   w   e Q e e e e     +w+q q
+----------------+-------------+--------------+---+-------------+----------+
|--------3-2-----|-R---R-----R-|--------------|---|-------------|6:--------|
|----5-5-----3-5-|---5---5-5---|----5-5-3-3---|---|---------3---|4:--------|
+----------------+-------------+------------5-+-1-+-1-1-3-5---5-+--------5-+


    w   +h+Q e   e e e q q e   e e e q q e   e e e q q e   e e e q e e e
+-----+--------+-------5-----+-------5-----+-------5-----+-------5-------+
|4:---|--------|-----3-----3-|-----3-----3-|-----3-----3-|-----3---------|
|4:---|------3-|-5-5-----3---|-5-5-----3---|-5-5-----3---|-5-5-----3-3---|
+---3-+--------+-------------+-------------+-------------+-------------3-+


  Q Q e e   Q Q e e   Q q q e   e e e e e e e e   e e e q q e   e e e q q e
+---------+---------+---------+-----------------+-------5-----+-------5-----+
|---3-----|---3-----|-----3-5-|-----5---3---2---|-----3-----3-|-----3-----3-|
|-1-------|-1-------|---5-----|-------5---3---3-|-5-5-----3---|-5-5-----3---|
+-----1-1-+-----1-1-+-3-------+-3-3-------------+-------------+-------------+


  e e e q q e   e e e q e e e   Q Q e e   Q Q e e   Q q q e   e e e e e e   w
+-------5-----+-------5-------+---------+---------+---------+-------------+---+
|-----3-----3-|-----3---------|---3-----|---3-----|-----3-5-|---5-3-2-----|---|
|-5-5-----3---|-5-5-----3-3---|-1-------|-1-------|---5-----|---------3-4-|-5-|
+-------------+-------------3-+-----1-1-+-----1-1-+-3-------+-3-----------+---+


  +w   +w   +h e e e e   +e e e q e e e   +e e e e e e e e   +e e e q e e e
+----+----+------------+----------------+------------------+----------------+
|----|----|----3-2-----|------R-----R---|------R---3-2-----|------R-----R---|
|----|----|--------3-5-|----5---5-5---5-|----5---5-----3-5-|----5---5-5---5-|
+----+----+------------+----------------+------------------+----------------+


  +e e e e e e q   q Q e e e   e e e e e e e e   +e+h e e e   q^q^q^e e e e
+----------------+-----------+-----------------+------------+---------------+
|------R---------|---3-------|-----------------|------------|-------3-2-----|
|----5---5-3-3---|-----------|-------------3---|------------|-----------3-5-|
+--------------5-+-1---1-1-1-+-1-1-1-1-3-5---5-+------5-5-5-+-5-5-5---------+


  +e e e q e q   +e q e e e e e   e e e q e q   +e q e e e e e   e+h e q
+--------------+----------------+-------------+----------------+---------+
|------R-----R-|--------3-2-----|-R---R-----R-|----------------|---------|
|----5---5-5---|----5-5-----3-5-|---5---5-5---|----5-5-3-3-5---|---------|
+--------------+----------------+-------------+--------------5-+-1---1-1-+


  +e e e e e e e e     e e w+q     w   +w   w   +w   q h   +e+h e e e   q h
+------------------+-----------+-----+----+---+----+-----+------------+-----+
|------3-----------|6:-----7---|4:---|----|-R-|----|-----|------------|-----|
|--------------3---|4:---------|4:---|----|---|----|-5-5-|--------3---|-5-5-|
+----1---1-3-5---5-+---5-5-----+---3-+----+---+----+-----+------5---5-+-----+


  +Q s s e e e e   q h   +e+h e e e   q h   +e q s s e e e e   e e h   +h e e
+----2-3-2-0-----+-----+------------+-----+------------------+-------+--------+
|------------3-0-|-----|------------|-----|--------------R---|-------|--------|
|----------------|-1-1-|------1-1---|-----|------------3---4-|-5-4-5-|----3---|
+----------------+-----+----------1-+-3-3-+----3-1-1-3-------+-------+------5-+

[ Tab from: http://www.guitartabs.cc/tabs/r/rush/open_secrets_btab.html ]
  q h   e s s e e e e q   q h   q e e q e e   q e Q e e   e q e e e e e
+-----+---2-3-2-----5/7-+-----+-------------+-----------+---------------+
|-----|---------3-R-----|-----|-------------|-----R-----|---R-------R---|
|-5-5-|-5---------------|-1-1-|-1-1---1-1---|-----------|---------3---4-|
+-----+-----------------+-----+-----1-----1-+-3-3---3-1-+-3---1-3-------+


  e e h   +e s s e q s s e e   q h   +Q e q e e   q e+h e   e q e q e e
+-------+----2-3-2---2-3-2---+-----+----5---7-3-+---------+-------------+
|-------|----------3-------3-|-----|------R-----|---------|---R---------|
|-5-5-5-|--------------------|-5-5-|------------|-1-1-----|-1-----1-1---|
+-------+--------------------+-----+------------+-------1-+-----1-----1-+


  e Q e Q   e e e e e e e e   e e e q e e e   +e q e s s s s e e
+---------+-----------------+-7---7---------+--------------------+
|---------|-R---------------|---7---5-5-7---|----3-3-2-3-2-0---0-|
|---------|-----------2-3-4-|-------------7-|----------------3---|
+-3-3-3-3-+---3-3-3-3-------+---------------+--------------------+


  e e e q e e e   e e e e e e e e   q e q e q   e e e e e e e e
+-7---7---------+-----------------+---------3-+-3-5-7-5-3-------+
|---7---5-5-7---|-R-3-2-3-5-3-2---|-----3-----|-----------7-5-3-|
|-------------7-|---------------5-|-1-1---1---|-----------------|
+---------------+-----------------+-----------+-----------------+


  e q s s e e e e   e e e q e e e   e e e q e e e   e q e s s s s e e
+-----2-3-2-------+-------2-------+-7---7---------+-------------------+
|-----------5-3-2-|-3-5-3---3-2---|---7---5-5-7---|-7-3-3-2-3-2-------|
|---5-------------|-------------3-|-------------7-|-------------5-3-5-|
+-3---------------+---------------+---------------+-------------------+


  e e e q e e e   e e e e e e e e   e e e q e e e   +e e e q e e e
+-7---7---------+-------------2---+---3---------5-+----3-2-3-2-----+
|---7---5-5-7---|-7-5-R-2-3-2-----|-----R---3-----|------------5-3-|
|-------------7-|---------------0-|-1-----1---1---|----------------|
+---------------+-----------------+---------------+----------------+


  e e e e e e e e   e e e e e e s s e   e e e e e e e e   e e e e e e e e
+-------2-------2-+-------2-----------+---5---5---5---5-+---5---5---5---7-+
|-----R---5-------|-5-------5-3-2-3-2-|-----------------|-----------------|
|---5-------5-----|---5---------------|-3---3---3---3---|-3---3---3---5---|
+-3-----------3---+-----3-------------+-----------------+-----------------+


  e e e e e e e e   e s s s s e e e e e   +Q q q e   q q e e e e   +Q q q e
+---3---3---3---3-+---------------------+----------+-------------+----------+
|-----------------|-------------3-2-----|----------|-----3-2-----|----------|
|-1---1---1---1---|-1-1-1-1-1-1-----3-5-|----5-5---|-3-5-----3-5-|----5-5---|
+-----------------+---------------------+--------5-+-------------+--------5-+


  q q e e e e   +e e e q e e e   +e e q e e e e   +e e e q e e e
+-------------+----------------+----------------+----------------+
|-----3-2-----|------R-----R---|--------3-2-----|------R-----R---|
|-3-5-----3-5-|----5---5-5---5-|----5-5-----3-5-|----5---5-5---5-|
+-------------+----------------+----------------+----------------+


  e e e e e e e e   e+h e e e   +e e e e e e e e   +e+h e e e   e e e e e e e
+-----------------+-----------+------------------+------------+---------------+
|-----------------|-----------|------------------|------------|-7-5-7-3-------|
|-5-5-3-5-3-3-3---|-----------|--------------3---|------------|---------7-3-5-|
+---------------5-+-1---1-1-1-+----1-1-1-3-5---5-+------5-5-5-+---------------+


  +e e e q e e e   e q e e e e e   +e e e q e e e   e e e e e e e e
+----------------+---------------+----------------+-----------------+
|------R-----R---|-------3-2-----|------R-----R---|-----------------|
|----5---5-5---5-|-5-5-5-----3-5-|----5---5-5---5-|-5-5-5-5-3-3-5---|
+----------------+---------------+----------------+---------------5-+


  e+h e e e   e e e e e e e e   +w     +q q     w   +e+h s s q   w   +w
+-----------+-----------------+----+--------+-----+------------+---+----+
|-----------|-----------------|----|2:------|4:---|------------|---|----|
|-----------|-------------3---|----|4:------|4:---|------------|---|----|
+-1---1-1-1-+-1-1-1-1-3-5---5-+----+------5-+---3-+------3-5-3-+-1-+----+


  s s s s e q e q   +w   s s s s e q Q   +w   s s s s e q e q   +w
+-----------0-2---+----+-----------0-2-+----+-----------0-2---+----+
|-2-3-2-0-------3-|----|-2-3-2-0-------|----|-2-3-2-0-------3-|----|
|---------3-------|----|---------3-----|----|---------3-------|----|
+-----------------+----+---------------+----+-----------------+----+


  s s s s e q q s s   s s e e e e e e e   s s s s e q e e s s
+-----------0-2-----+-------------------+-----------0-2-------+
|-2-3-2-0-------2-3-|-2-0---0-----0-----|-2-3-2-0-------R-2-3-|
|---------3---------|-----3---0-3-----0-|---------3-----------|
+-------------------+---------------3---+---------------------+


  s s e e e e e e e   s s s s e q q s s   s s e e e e e e e
+-------------------+-----------0-2-----+-------------------+
|-2-0---0-----0-----|-2-3-2-0-------2-3-|-2-0---0-----0-----|
|-----3---0-3-----0-|---------3---------|-----3---0-3-----0-|
+---------------3---+-------------------+---------------3---+


  s s s s e q q s s   s s e e e e e e e   s s s s e q q s s
+-------------------+-------------------+-----------0-2-----+
|-2-3-2-0---5-7-2-3-|-2-0---0-----0-----|-2-3-2-0-------2-3-|
|---------3---------|-----3---0-3-----0-|---------3---------|
+-------------------+---------------3---+-------------------+


  s s e e e e e e e   s s s s e q q s s   s s e e e e e e e
+-------------------+-----------0-2-----+-------------------+
|-2-0---0-----0-----|-2-3-2-0-------2-3-|-2-0---0-----0-----|
|-----3---0-3-----0-|---------3---------|-----3---0-3-----0-|
+---------------3---+-------------------+---------------3---+


  s s s s e q q s s   s s e e e e e e e   s s s s e q q s s
+-----------0-2-----+-------------------+-----------0-2-----+
|-2-3-2-0-------2-3-|-2-0---0-----0-----|-2-3-2-0-------2-3-|
|---------3---------|-----3---0-3-----0-|---------3---------|
+-------------------+---------------3---+-------------------+


  s s e e e e e e e   s s s s e q q s s   s s e e e e e e e
+-------------------+-----------0-2-----+-------------------+
|-2-0---0-----0-----|-2-3-2-0-------2-3-|-2-0---0-----0-----|
|-----3---0-3-----0-|---------3---------|-----3---0-3-----0-|
+---------------3---+-------------------+---------------3---+


  s s s s e q q s s   s s e e e e e e e   s s s s e q q s s
+-----------0-2-----+-------------------+-----------0-2-----+
|-2-3-2-0-------2-3-|-2-0---0-----0-----|-2-3-2-0-------2-3-|
|---------3---------|-----3---0-3-----0-|---------3---------|
+-------------------+---------------3---+-------------------+


  s s e e e e e e e   s s s s e q q s s
+-------------------+-----------0-2-----+
|-2-0---0-----0-----|-2-3-2-0-------2-3-|
|-----3---0-3-----0-|---------3---------|
+---------------3---+-------------------+


==========================================================================

                Created using the Bass Tab Creator
     __         by Mario D'Alessio (motcid!marble!dalessio)
   +|oo|+
   +|oo|+       Notes:  w = Whole  h = Half  q = Quarter
     ||                 e = 8th    s = 16th  t = 32nd  x = 64th
     ||
     ||                 Capital durations are dotted notes
     ||                   (equal to 1.5 times the duration value)
     ||
     ||             #
     ||         +----+                   +----+
  _  ||  _      |*--*+  = MEASURE        |4:--|  = TIME
  \\_||_//      |*--*+    REPEATS        |4:--|    SIGNATURES
   | [] |       +----+   (#=Num Repeats) +----+
   | || |
  /  []  \      + = TIE         ^  = TRIPLET           > = BEND
  \______/      H = HAMMER ON   \  = SLIDE TO FRET     R = Rest
                P = PULL OFF    \X = SLIDE TO NOWHERE  ~ = Trill

==========================================================================



Comments