Rush - In The End Chords & Tabs

 

In The End Chords & Tabs

Rush Chords & Tabs

Version: 1 Type: Bass Tab 0 ratings
1 star 2 stars 3 stars 4 stars 5 stars
comments

In The End Bass Tab

   
Rush: In the End
>From the album Fly by Night (Mercury Records)
Copyright 1975 Core Music Publishing
Music by Lee and Lifeson
Lyrics by Lee and Lifeson

Comments/corrections to Sean Jones 

Transcribed by Sean Jones


                H q+  h h   Q q e q+  w   Q Q q+  w   Q Q q+  h e e q
||----6 mm.---|-----|-----|---------|---|-------|---|-------|-----------
||-2:-rest----|-----|-----|-------3-|---|-1-1---|---|-----3-|---3-2-0---
||-2:---------|-1-0-|-----|-3-3-3---|---|-----1-|---|-3-3---|-----------
||------------|-----|---3-|---------|---|-------|---|-------|-----------


  H q+  h h     Q Q q+  w   Q Q q+  w   Q Q q+  h e e e e   H q+  h h
|-----|-----||--------|---|-------|---|-------|-----------|-----|-------
|-----|-----||*-----3-|---|-1-1---|---|-----3-|---3-2-0---|-----|-------
|-1-0-|-----||*-3-3---|---|-----1-|---|-3-3---|---------3-|-1-0-|-------
|-----|---3-||--------|---|-------|---|-------|-----------|-----|---3---


    Q e q q+  h h   h q+  h h   h q+  h h   h q+  h h     Q Q q+  w
-||---------|-----|-----|-----|-----|-----|-----|-----||--------|---|---
*||-7-7-7---|---7\|-3---|---3/|-7---|---7\|-3-5-|-----||*-----3-|---|---
*||-------7-|-----|---3-|-----|---7-|-----|-----|---5\||*-3-3---|---|---
-||---------|-----|-----|-----|-----|-----|-----|-----||--------|---|---


Q Q q+  w   Q Q q+  h e e e e   H q+  h h     w+  w              H q+
------|---|-------|-----------|-----|------||---|---||--6 mm.--|--------
1-1---|---|-----3-|---3-2-0---|-----|-----*||---|---||--rest---|--------
----1-|---|-3-3---|---------3-|-1-0-|-----*||---|---||---------|-3-2----
------|---|-------|-----------|-----|---3--||-0-|---||---------|--------


  h h   q q q q+  w   q q q q+  w   q q q q   q q h   H q+  h h    q
|-----|-----r---|---|-----r---|---|-----r---|-r-----|-----|-----||------
|-----|-----e-5-|---|-3-3-e---|---|-----e-5-|-e-5-5\|-----|-----||------
|---0-|-5-5-s---|---|-----s-3-|---|-5-5-s---|-s-----|-3-2-|---0-||-5----
|-----|-----t---|---|-----t---|---|-----t---|-t-----|-----|-----||------


q q q+  h e Q   q q q q+  w   q q q q   q q h   H q+  h e e e e   q q
--r---|-------|-----r---|---|-----r---|-r-----|-----|-----------|-------
--e-5-|-----5-|-3-3-e---|---|-----e-5-|-e-5-5\|-----|-----------|-------
5-s---|---5---|-----s-3-|---|-5-5-s---|-s-----|-3-2-|---0-2-3-4-|-5-5---
--t---|-------|-----t---|---|-----t---|-t-----|-----|-----------|-------


q q+  q q h   q q q q+  H e e   q q q q   q q q q   H q+  h q q    q
----|-------|---------|---r---|---------|-r-------|-----|-------||------
4-5-|---5-5-|-3-3-----|---e---|-----4-5-|-e-5-5---|-----|-----7\||-3----
----|-------|-----2-3-|---s-3-|-5-5-----|-s-----5-|-3-2-|---0---||------
----|-------|---------|---t---|---------|-t-------|-----|-------||------


q q q   q q q q   q q h+  w   q q q q   q q q q+  e e e e h+  w   q q
--r-2-|-r---r---|-r-----|---|-----r-2-|-r---r---|---------4-|---|-------
3-e---|-e-3-e-3-|-e-5-5-|---|-3-3-e---|-e-3-e-3-|---3-5-2---|---|-3-3---
--s---|-s---s---|-s-----|---|-----s---|-s---s---|-----------|---|-------
--t---|-t---t---|-t-----|---|-----t---|-t---t---|-----------|---|-------


q q   q q q q   e e e e h+  w   q q q q   q q e e q+  e e e e h   Q e
r-2-|-r---r---|-r---------|---|-----r-2-|-r---r-----|-----7---7-|-7\4---
e---|-e-3-e-3-|-e-3-5-3-5-|---|-3-3-e---|-e-3-e---3-|---5---5---|-------
s---|-s---s---|-s---------|---|-----s---|-s---s-3---|-----------|-------
t---|-t---t---|-t---------|---|-----t---|-t---t-----|-----------|-------


e e q    q q q q+  h e q e   q e e q q+  H e e   q q q q   q q e e e
2-4-2-||---------|---------|-----------|---r---|---------|-r------------
------||-----4-5-|-----5---|-3-3-------|---e---|-----4-5-|-e-5-5-4-2----
------||-5-5-----|---5---5-|-----3-2-3-|---s-0-|-5-5-----|-s------------
------||---------|---------|-----------|---t---|---------|-t------------


e   q q q q   q q e e e e   q e e q q+  h e e   q e e q q+  h e q e
--|---------|-------------|-----------|---r---|-----------|---------|---
--|---------|-------------|-------4-5-|---e---|-3-3-2-----|---5-----|---
5-|-3-3-3-2-|-2-2-0-2-3-4-|-5-5-5-----|---s-3-|-------2-3-|-----3-0-|---
--|---------|-------------|-----------|---t---|-----------|---------|---


q q q q+  q q e e e e   q q q q   q q e e e e   q q q q+  w   q e e q
--------|-------------|---------|-------------|---------|---|-----------
----4-5-|---5-5-4-2---|---------|-------------|-----4-5-|---|-3-3-------
5-5-----|-----------5-|-3-3-3-2-|-2-2-0-2-3-4-|-5-5-----|---|-----3-2---
--------|-------------|---------|-------------|---------|---|-----------


q+  h e q e   q q q q+  q q e e e e   H q+  h q q    q q q q   q q q
--|---------|-----7---|-------------|-----|-------||-----r-2-|-r---r----
--|---------|-------5-|---5-5-4-2---|-----|-----7\||-3-3-e---|-e-3-e----
3-|-----3-0-|-5-5-----|-----------5-|-3-2-|---0---||-----s---|-s---s----
--|---3-----|---------|-------------|-----|-------||-----t---|-t---t----


q   q q h+  w   q q q q   q q q q+  e e e e h+  w   q q q q   q q q q
--|-r-----|---|-----r-2-|-r---r---|---------4-|---|-----r-2-|-r---r-----
3-|-e-5-5-|---|-3-3-e---|-e-3-e-3-|---3-5-2---|---|-3-3-e---|-e-3-e-3---
--|-s-----|---|-----s---|-s---s---|-----------|---|-----s---|-s---s-----
--|-t-----|---|-----t---|-t---t---|-----------|---|-----t---|-t---t-----


  e e e e h+  w   q q q q   q q e e q+  e e e e h+  Q q e e e    q q
|-r---------|---|-----r-2-|-r---r-----|-----7---7-|---5-5-4---||--------
|-e-3-5-3-5-|---|-3-3-e---|-e-3-e---3-|---5---5---|---------7-||--------
|-s---------|---|-----s---|-s---s-3---|-----------|-----------||-5-5----
|-t---------|---|-----t---|-t---t-----|-----------|-----------||--------


q q+  h e Q   q e e q q+  h e q e   q q q q+  e e e e e e e e   h q+
----|-------|-----------|---------|---------|-----------------|-----|---
4-5-|-----5-|-3-3-2-----|---------|-----4-5-|-----5-5-5-4-2---|-----|---
----|---5---|-------2-3-|-----3---|-5-5-----|---5-----------5-|-3-2-|---
----|-------|-----------|---3---3-|---------|-----------------|-----|---


h h   q e e q q+  h e q e   q e e q q+  q e e e q e   q q q q+  q q q
----|-----------|---------|-----------|-------------|---------|---------
----|-------4-5-|-----5---|-3-3-2-----|-------------|-----4-5-|-----5---
--0-|-5-5-5-----|---5---5-|-------2-3-|---3-3---3-0-|-5-5-----|---5-----
----|-----------|---------|-----------|-------3-----|---------|---------

[ Tab from: http://www.guitartabs.cc/tabs/r/rush/in_the_end_btab.html ]
q   H q+  h h   q q q q+  q q q e e   q e e q q+  h e q e   q e e q q+
--|-----|-----|---------|-----------|-----------|---------|-------------
--|-----|-----|-----4-5-|---5---5-4-|-3-3-2-----|---------|-------4-5---
5-|-3-2-|---0-|-5-5-----|-----5-----|-------2-3-|-----3---|-5-5-5-------
--|-----|-----|---------|-----------|-----------|---3---3-|-------------


  e e e e e e e e   h q+  h q q   q q q q+  h e q e   q e e e e q+  q
|-----------------|-----|-------|-----7---|---------|-------------|-----
|---4-5-4-5-4-2---|-----|-------|-------5-|-----5---|-3-3-3-3-----|-----
|---------------5-|-3-2-|---0-0/|-5-5-----|---5---5-|---------2-3-|-----
|-----------------|-----|-------|---------|---------|-------------|-----


q e q e   q q q e e   q q e e e e   q h q+  h h   Q e e e q+  h e e e
--------|---------r-|-r-----------|-------|-----|-----7-----|-------7---
--------|-----4-5-e-|-e-5-5-4-2---|-------|-----|---------5-|-----5-----
3---3---|-5-5-----s-|-s---------5-|-3-3-2-|---0-|-5-5---5---|---5-------
--3---3-|---------t-|-t-----------|-------|-----|-----------|-----------


e   q q q q+  q q e q e   e e e e e e e e   e e e e e e e e   q q q q+
--|-----5---|-----------|-------7---7-----|-------7---------|-----------
--|-3-3-----|-----------|-----------------|-----5---5-4-2---|-----------
5-|-------3-|---3---3-3-|-5-5-5---5---5-5-|-5-5-----------5-|-3-3-3-2---
--|---------|-----3-----|-----------------|-----------------|-----------


  h e Q    q q q q   q q q q   h q q+  q q e e q   q e e q q   q q q
|-------||-----r---|-r-------|-------|-----------|-----------|-r--------
|-------||-9-9-e---|-e-9---9\|-5-5---|---5-----5/|-9-9-9-9---|-e-9------
|---0-0/||-----s-9-|-s---9---|-----5-|-----5-5---|---------9-|-s---9----
|-------||-----t---|-t-------|-------|-----------|-----------|-t--------


q   q q q q   q h q    q q q q+  q q e q e   q e e q q+  h e q e   e
--|---------|-r-----||---------|-----------|-----5-----|---------|------
9\|-5---5-7-|-e-7-7-||-----4-5-|---5---5---|-3-3-------|---------|------
--|---5-----|-s-----||-5-5-----|-----5---5-|-------1-3-|-----3---|-3----
--|---------|-t-----||---------|-----------|-----------|---3---3-|------


 e q q q+  q q e e q   H q+  h h   q e e q q+  h Q e   q e e q q+  w
---------|-----------|-----|-----|-----------|-------|-----------|------
-----4-5-|---5-5-4-2-|-----|-----|-------4-5-|---5-2-|-3-3-2-----|------
/5-5-----|-----------|-3-2-|---0-|-5-5-5-----|-------|-------3-3-|------
---------|-----------|-----|-----|-----------|-------|-----------|------


  q q q q   q q h   H q+  h q q   q e e q q+  h e q e   q e e q q+  w
|---------|-r-----|-----|-------|-----------|---------|-----------|-----
|-----4-5-|-e-5-5-|-----|-------|-------4-5-|-----5---|-3-3-2-----|-----
|-5-5-----|-s-----|-3-2-|---0-0/|-5-5-5-----|---5---5-|-------3-3-|-----
|---------|-t-----|-----|-------|-----------|---------|-----------|-----


  q q q q   e e e e e e e e   h q+  h h    w+  w             e e+h+
|---------|-r---------------|-----|-----||---|---|--2 mm.--|-7h9---|----
|-----4-5-|-e---5---5-4-2---|-----|-----||---|---|--rest---|-------|----
|-5-5-----|-s-5---5-------5-|-3-2-|---0-||-5-|---|---------|-------|----
|---------|-t---------------|-----|-----||---|---|---------|-------|----


q e^e^e^e^e^e^q   H q+  h h   Q Q q+  w   Q q e q+  w   Q Q q+  H q
--7h9p7---------|-----|-----|-------|---|---------|---|-------|-----|---
--------7h9p7---|-----|-----|-----5-|---|-3-3-----|---|-----5-|-----|---
--------------7\|-3-2-|---0-|-3-3---|---|-----2-3-|---|-5-5---|---5\|---
----------------|-----|-----|-------|---|---------|---|-------|-----|---


h q+  h h   Q Q q+  w   Q q e q+  w   Q q e q+  h e e e e   h q+  h h
----|-----|-------|---|---------|---|---------|-----------|-----|-------
----|-----|-----5-|---|-3-3-----|---|-----4-5-|---5-4-2---|-----|-------
3-2-|---0-|-3-3---|---|-----2-3-|---|-5-5-----|---------5-|-3-2-|---0---
----|-----|-------|---|---------|---|---------|-----------|-----|-------


  Q q e q+  h e e e e   Q q e q+  w   Q q e q+  h e e q   h q+  h h
|---------|-----------|---------|---|---------|---------|-----|-----|---
|-----4-5-|---5---5---|-3-3-----|---|-----4-5-|---5-4---|-----|-----|---
|-5-5-----|-----5---5-|-----1-3-|---|-5-5-----|-------7\|-3-2-|---0-|---
|---------|-----------|---------|---|---------|---------|-----|-----|---


w
--||--------------------------------------------------------------------
--||--------------------------------------------------------------------
5-||--------------------------------------------------------------------
--||--------------------------------------------------------------------




========================================================================
==                       TABLATURE EXPLANATION                        ==
========================================================================

----------                ----------                ----t---
----5h8--- Hammeron       ----(8)--- Ghost          ----6--- Tap
----------                ---------- Note           --------
----5p8--- Pulloff        ----------                --------

----------                ----------                -----p--
----5/8--- Slide Up       -----x---- Dead           -----7-- Pop
----------                ---------- Note           --s-----
----5\8--- Slide Down     ----------                --5----- Slap

----------                ||------|| Repeat         --------
----5~~~-- Vibrato        ||*----*||                ---5^--- Bend
----------                ||*----*||                --------
----------                ||------||                --------

----------                ----------                --------
-4:------- Time           ----------                --------
-4:------- Signature      ----------                --------
----------                ----------                --------

Rhythm:
  w = whole note            W = dotted whole
  h = half note             H = dotted half
  q = quarter note          Q = dotted quarter
  e = eighth note           E = dotted eighth
  s = sixteenth note        S = dotted sixteenth
  t = 32nd note             T = dotted 32nd
  x = 64th note             X = dotted 64th
  ^ = triplet

========================================================================
==            Created with a demo version of BUCKET O' TAB            ==
==              tablature creation software for Windows               ==
==                  For more info email gse@his.com                   ==
========================================================================



Comments