Rush - Fly By Night Chords & Tabs

 

Fly By Night Chords & Tabs

Rush Chords & Tabs

Version: 3 Type: Tab 0 ratings
1 star 2 stars 3 stars 4 stars 5 stars
comments

Fly By Night Tab

   
Rock 930
Fly By Night Rush
Standard tuning
 November 30, 2004

                  The tab I'm playing Fly by Night I learned from a freind who can 
play anything. The only tricky part to this tab is the beginning when you play the
c and end with the 1 st and 2 string when you have to play them both at the same
time. I hope you injoy the beginning and the chorus.

 | basicly a music staf instead of a line
 s slide
 / Slide up
 \ Slide down
 P pull-off
 h hammer
 b bend
 <12> natural harmonic or a pinched harmonic

x2
      D     D   Dsus4
  E/----2---2---3---3-|---------3------3---------3---------------------------|
  b/----3---3---3---2-|---------3------3-------3-------2-0-2-----------------|
  g/----2---2---0---0-|--------------------------------2-0-2-----------------|
  d/----0---0---2---2-|-----3--------0-------0---------2-0-2-----------------|
  a/------------------|-0-2--------2-------1---------------------------------|
  E/------------------|------------------------------------------------------|
[ Tab from: http://www.guitartabs.cc/tabs/r/rush/fly_by_night_tab_ver_3.html ]
     G  D  D   Dsus4
  E--------2----------|---------3------3------3-------------------------------|
  b/-3--2--3----3--3---|---------3------3------3-----2-0-2--------------------|
  G/-0--2--2----2--2---|-----------------------------2-0-2--------------------|
  D/-0--0--0----0--0---|-----3------0-------0--------2-0-2--------------------|
  A/-2----------------|-0-2------2-------1------------------------------------|
  E/-3----------------|-------------------------------------------------------|

 riff 2
x2
  E/----2-2--------5-5------7-0-8-0-10----------------------------|
  B/---3---3------6---6-----8-0-8-0-10----------------------------|
  G/- 2-----2----5-----5----7-0-9-0-11----------------------------|
  D/-0-------0--0-------0---0-0-0-0-0-----------------------------|
  A/--------------------------------------------------------------|
  E/--------------------------------------------------------------|

Chorus
x2
 E/-10-7-7-7|------------15-------------------------------------------|
 B/-8--8-8-8|------------12-------------------------------------------|
 G/-9--7-7-7|------------12-------------------------------------------|
 D/-7--7-7-7|------------12-------------------------------------------|
 A/------9-9|-3-2-0---------------------------------------------------|
 E/------0-0|------3--------------------------------------------------|


          The last chord to this song is played with a really hard pound can also be 
in other places. thanks.   email  : b_decker@comcast.net
Comments